Clown

Gitaarliedjes, tabs & akkoorden (chords) Clown - korn

Songtype: Tab

arrow&v

Markeer als favoriet

Favoriet

Gemarkeerd als favoriet

Capo:

0

korn

korn

Song
Album
Categorie

Clown

Downloads
3096
Niveau
2
korn

Geplaatst door
gitaartabs
ProTabs-promo.jpg

Intro x1
D|------------------------------------|
A|------------------------------------|
F|-------4^------3^------3^------3~~^-|
C|------------------------------------|
G|------------------------------------|
D|--0000----0000----0000----0000------|
A|--0000----0000----0000----0000------|

Interlude - Head x1
D|--------------------------|
A|--------------------------|
F|--------------------------|
C|--------------------------|
G|--------------------------|
D|-565454-565454-565454-564-|
A|-343232-343232-343232-342-|

Main - Head and Munky x4 x4
D|--------------------------|-----------------------|
A|--------------------------|-----------------------|
F|--------------------------|-----------------------|
C|--------------------------|-----------------------|
G|--------------------------|-----------------------|
D|-565454-565454-565454-564-|-5/6-4/5-5/6-4/5-5/64-|
A|-343232-343232-343232-342-|-3/4-2/3-3/4-2/3-3/42-|

Verse x8
D|---------------------------------------|
A|---16------15------16------15-------14-|
F|-19---19-18---18-19---19-18---18-19-17-|
C|---------------------------------------|
G|---------------------------------------|
D|---------------------------------------|
A|---------------------------------------|

Chorus - Head x8
D|-----------------------|
A|-----------------------|
F|-----------------------|
C|-----------------------|
G|-----------------------|
D|-2--22--22-65554443-|
A|-0--00--00-43332221-|

Chorus - Munky x8
D|----------------------------|
A|----------------------------|
F|----------------------------|
C|----------------------------|
G|-----------1312121211110-|
D|-2--22--22-111010109998--|
A|-0--00--00------------------|

Intro x1
D|-------------------------------|
A|-------------------------------|
F|-------4^------3^------3^------|
C|-------------------------------|
G|-------------------------------|
D|--0000----0000----0000----0000-|
A|--0000----0000----0000----0000-|

Verse x8
D|---------------------------------------|
A|---16------15------16------15-------14-|
F|-19---19-18---18-19---19-18---18-19-17-|
C|---------------------------------------|
G|---------------------------------------|
D|---------------------------------------|
A|---------------------------------------|

Chorus - Head x8
D|-----------------------|
A|-----------------------|
F|-----------------------|
C|-----------------------|
G|-----------------------|
D|-2--22--22-65554443-|
A|-0--00--00-43332221-|

Chorus - Munky x8
D|----------------------------|
A|----------------------------|
F|----------------------------|
C|----------------------------|
G|-----------1312121211110-|
D|-2--22--22-111010109998--|
A|-0--00--00------------------|

Interlude - Head
D|---------| |-------|
A|---------| | ------|
F|------5^-| |-------|
C|---------| x7 |-------|
G|---------| |-------|
D|-0-------| |-2-3-4-|
A|-0-00----| |-0-1-2-|

Interlude - Munky
D|------8^-| |-------|
A|---------| |-------|
F|---------| |-------|
C|---------| x7 |-------|
G|---------| |-------|
D|-0-------| |-2-3-4-|
A|-0-00----| |-0-1-2-|

Interlude - Head x2
D|--------------------------------|
A|--------------------------------|
F|------5^-----5^------5^---------|
C|--------------------------------|
G|--------------------------------|
D|-0--------------0-----------3-4-|
A|-0-00----000----0-00----000-1-2-|

Interlude - Munky x2
D|------8^-----8^------8^---------|
A|--------------------------------|
F|--------------------------------|
C|--------------------------------|
G|--------------------------------|
D|-0--------------0-----------3-4-|
A|-0-00----000----0-00----000-1-2-|

Main - Head and Munky x4 x4
D|--------------------------|-----------------------|
A|--------------------------|-----------------------|
F|--------------------------|-----------------------|
C|--------------------------|-----------------------|
G|--------------------------|-----------------------|
D|-565454-565454-565454-564-|-5/6-4/5-5/6-4/5-5/64-|
A|-343232-343232-343232-342-|-3/4-2/3-3/4-2/3-3/42-|

Chorus - Head x8
D|-----------------------|
A|-----------------------|
F|-----------------------|
C|-----------------------|
G|-----------------------|
D|-2--22--22-65554443-|
A|-0--00--00-43332221-|

Chorus - Munky x8
D|----------------------------|
A|----------------------------|
F|----------------------------|
C|----------------------------|
G|-----------1312121211110-|
D|-2--22--22-111010109998--|
A|-0--00--00------------------|

Outro
D|-------------------------------------------------------|
A|-------------------------------------------------------|
F|-------------------------------------------------------|
C|-------------------------------------------------------|
G|-------------------------------------------------------|
D|-0000---0000---0000---0000---0000---0000---0000---0000-|
A|-0000---0000---0000---0000---0000---0000---0000---0000-|


Tekst:
Anger, inside
Builds within, my body
Why, you hit me?
What have I done?
You tried to hit me!

[Chorus:]
Scream at me again, if you like
Throw your hate at me, with all your might
Hit me 'cause I'm strange, hit me
Tell me I'm a pussy and you're harder than me
What's with you boy? Think hard
A tattooed body to, hide who you are
Scared to be honest, be yourself
A cowardly man

I, don't run around
Trying to be, what's not within me
Look, into my eyes
I am free
You're just a wanna-be!

[Chorus:]
Scream at me again, if you like
Throw your hate at me, with all your might
Hit me 'cause I'm strange, hit me
Tell me I'm a pussy and you're harder than me
What's with you boy? Think hard
A tattooed body to, hide who you are
Scared to be honest, be yourself
A cowardly man

To come out...

Hit me clown because I'm not from your town now, hit me clown [x4]

Clown you ain't shit! Turn around! Get your face split! [x4]

[Chorus:]
Turn if you like,
Throw your hate at me, with all your might,
Hit me 'cause I'm strange, hit me.
Tell me I'm a pussy and you're harder than me.
What's with you boy? Think hard,
A tattooed body to hide who you are,
Scared to be honest, be yourself,
A cowardly man

Im just too fucking little(x3)
Im just too fucking mental(x4)

ProTabs promo.jpg

Onbeperkt en gratis toegang tot alle 25.000
Tabs & Chords en direct meespelen met

Artiest Liedje

...

Gitaarakkoorden korn - Clown

Dankzij de bladmuziek op deze pagina wordt het een stuk makkelijker om met de gitaar mee te spelen met Clown van korn De ProTabs van Gitaartabs worden door onze professionele gitaardocenten samengesteld. De tabs en chords zijn door leden zelf geplaatst. Deze undefined van korn met Clown is voor je geschreven door gitaartabs

Tabs & Chords van korn - Clown

Bij de ProTabs delen we niet alleen de tablatuur maar ook de speelwijze van Clown Met een beetje gitaar ervaring moet je dit gitaarliedje zeker kunnen spelen, maar als het niet lukt zijn we er altijd om je te helpen. Door een gratis account aan te maken krijg je niet alleen toegang tot deze tab ,akkoorden & tabs van Clown maar kun je ook onbeperkt meespelen met een van de meer dan 25.000 andere tabs & chords in onze database.

Plaats opmerking

Verstuur

Beoordeel deze song

Rate UsDon’t love itNot greatGoodGreatLove itRate Us

Bedankt voor je beoordeling!