Freak on a leash

Gitaarliedjes, tabs & akkoorden (chords) Freak on a leash - korn

Songtype: Tab

arrow&v

Markeer als favoriet

Favoriet

Gemarkeerd als favoriet

Capo:

0

korn

korn

Song
Album
Categorie

Freak on a leash

follow the leader

Downloads
1743
Niveau
2
Geplaatst door
sinn
ProTabs-promo.jpg

Intro en coupletten gitaar 1
D|------------19----------------------------------19-----|
A|---17------------18--------------------17------------18|
F|-------------------------------------------------------|
C|-------------------------------------------------------|
G|-------------------------------------------------------|
D|-------------------------------------------------------|
A|-------------------------------------------------------|

Gitaar 2
D|---------------------------------------12---------|
A|---------------------------------10---------------|
F|----------------------------10--------------------|
C|--------------------------------------------------|
G|--------------------------------------------------|
D|--------------------------------------------------|
A|--------------------------------------------------|

Voor refrein:
D|------------------------------------------------------------|
A|-13/14\13----------13---------13/14\13----------13-------10-|
F|--x-----------------x----------x-----------------x--------x-|
C|-11/12\11----------11---------11/12\11----------11--------8-|
G|-------------0------0---------------------0-----------------|
D|------------------------------------------------------------|
A|------------------------------------------------------------|

Refrein
D|--------------------------------------------------|
A|--------------------------------------------------|
F|-4~-----------------------------------------------|
C|-4~---------4--4----5--3--------------------------|
G|-2~---------4--4----5--3--------------------------|
D|-x----------2--2----3--1--------------------------|
A|-0~-----------------------------------------------|

Solo gitaar 1
D|--------10--10--------10--10-9-10-9~--------------10--10--------10--10~|
A|-----------------------------------------------------------------------|
F|-----------------------------------------------------------------------|
C|-----------------------------------------------------------------------|
G|-----------------------------------------------------------------------|
D|-----------------------------------------------------------------------|
A|-----------------------------------------------------------------------|

Gitaar 2
D|-----------------------------------------------------------------------|
A|-----------------------------------------------------------------------|
F|-----------------------------------------------------------------------|
C|-----------------------------------------------------------------------|
G|-----------------------------------------------------------------------|
D|--9--9----------9--9------------------------9--9----------9--9---------|
A|-----------------------------------------------------------------------|


Gitaar 1&Gitaar 2
D|-----------------------------------------------------------------|
A|-----------------------------------------------------------------|
F|-----------------------------------------------------------------|
C|-----------------------------------------------------------------|
G|--5---6--7--8------5---6--7--8------5---6--7--8------5---6--5--4-|
D|--5---6--7--8------5---6--7--8------5---6--7--8------5---6--5--4-|
A|--3---4--5--6------3---4--5--6------3---4--5--6------3---4--3--2-|


Laatste refrein
D|-----------------------------------------------------|
A|-----------------------------------------------------|
F|-4-4-4-44--------------------------------------------|
C|-4-4-4-44------4--4----5--3--------------------------|
G|-2-2-2-22------4--4----5--3--------------------------|
D|---------------2--2----3--1--------------------------|
A|-----------------------------------------------------|

|-7------/19------\7----8--5--------------------------|
|-----------------------------------------------------|
|-----------------------------------------------------|
|-----------------------------------------------------|
|-----------------------------------------------------|
|-----------------------------------------------------|
|-----------------------------------------------------|


Tekst:
Couplet:
Something takes a part of me.
Something lost and never seen.
Everytime I start to believe,
Something's raped and taken from me... from me.
Life's got to always be messing with me. (You wanna see the light)
Can't they chill and let me be free? (So do I)
Can't I take away all this pain. (You wanna see the light)
I try to every night, all in vain... in vain.

Voor refrein
Sometimes I cannot take this place.
Sometimes it's my life I can't taste.
Sometimes I cannot feel my face.
You'll never see me fall from grace

Refrein
Something takes a part of me.
You and I were meant to be.
A cheap fuck for me to lay
Something takes a part of me.

Couplet
Feeling like a freak on a leash. (You wanna see the light)
Feeling like I have no release. (So do I)
How many times have I felt diseased? (You wanna see the light)
Nothing in my life is free... is free

Refrein

Boom na da mmm dum na ema
Da boom na da mmm dum na ema

GO!
So...fight! something on the... dum na ema
Fight...some things they fight
So...something on the... dum na ema
Fight...some things they fight
Fight...something of the... dum na ema
No...some things they fight
Fight...something of the... dum na ema
Fight...some things they fight

ProTabs promo.jpg

Onbeperkt en gratis toegang tot alle 25.000
Tabs & Chords en direct meespelen met

Artiest Liedje

...

Gitaarakkoorden korn - Freak on a leash

Dankzij de bladmuziek op deze pagina wordt het een stuk makkelijker om met de gitaar mee te spelen met Freak on a leash van korn De ProTabs van Gitaartabs worden door onze professionele gitaardocenten samengesteld. De tabs en chords zijn door leden zelf geplaatst. Deze undefined van korn met Freak on a leash is voor je geschreven door sinn

Tabs & Chords van korn - Freak on a leash

Bij de ProTabs delen we niet alleen de tablatuur maar ook de speelwijze van Freak on a leash Met een beetje gitaar ervaring moet je dit gitaarliedje zeker kunnen spelen, maar als het niet lukt zijn we er altijd om je te helpen. Door een gratis account aan te maken krijg je niet alleen toegang tot deze tab ,akkoorden & tabs van Freak on a leash maar kun je ook onbeperkt meespelen met een van de meer dan 25.000 andere tabs & chords in onze database.

Plaats opmerking

Beoordeel deze song

Rate UsDon’t love itNot greatGoodGreatLove itRate Us

Bedankt voor je beoordeling!