Shoots and ladders

Gitaarliedjes, tabs & akkoorden (chords) Shoots and ladders - korn

Songtype: Tab

arrow&v

Markeer als favoriet

Favoriet

Gemarkeerd als favoriet

Capo:

0

korn

korn

Song
Album
Categorie

Shoots and ladders

korn

Downloads
43
Niveau
2
Geplaatst door
gitaartabs
ProTabs-promo.jpg

Doedelzak
d|----------------------------------------------------|
a|--13--------11--------15--------11--------13--------|
F|----------------------------------------------------|
C|----------------------------------------------------|
G|----------------------------------------------------|
D|----------------------------------------------------|
A|----------------------------------------------------|

d|----------------------------------------------------|
a|------11--------15--------11--------13--------------|
F|----------------------------------------------------|
C|----------------------------------------------------|
G|----------------------------------------------------|
D|----------------------------------------------------|
A|----------------------------------------------------|

d|--12--------10--------13--------10--------12--------|
a|--13--------11--------15--------11--------13--------|
F|----------------------------------------------------|
C|----------------------------------------------------|
G|----------------------------------------------------|
D|----------------------------------------------------|
A|----------------------------------------------------|

d|------15---13--15---------15--17--15--13------------|
a|--13------------------13----------------15----------|
F|----------------------------------------------------|
C|----------------------------------------------------|
G|----------------------------------------------------|
D|----------------------------------------------------|
A|----------------------------------------------------|

d|------15---13--15---------13------------------------|
a|--13------------------13------15----13--15--13------|
F|----------------------------------------------------|
C|----------------------------------------------------|
G|----------------------------------------------------|
D|----------------------------------------------------|
A|----------------------------------------------------|

d|-------------------------15-------------------------|
a|--13------------------------------------------------|
F|----------------------------------------------------|
C|----------------------------------------------------|
G|----------------------------------------------------|
D|----------------------------------------------------|
A|----------------------------------------------------|

Gitaren
d|--------------------------|
a|--------------------------|
F|--------------------------|
C|--------------------------|
G|--3-3--------3-3---3-3----|
D|--3-3--------3-3---3-3----|
A|--1-1--------1-1---1-1----|

d|--------------------------|
a|--------------------------|
F|--------------------------|
C|--5^----------5^----------|
G|--------------------------|
D|--------------------------|
A|--------------------------|

Couplet Riff
d|--------------------------|
a|--------------------------|
F|--------------------------|
C|------5^------------------|
G|--5-----------------------|
D|--5-----------------------|
A|--3-----------------------|


Refrein Riff
d|--------------------------------------------|
a|--------------------------------------------|
F|--------------------------------------------|
C|--------------------------------------------|
G|--5----------5----------5----------5-4-3----|
D|--5----------5----------5----------5-4-3----|
A|--3---5-4-3--3---5-4-3--3---5-4-3--3-2-1----|

Bridge
d|-------------------------------------|
a|-------------------------------------|
F|-------------------------------------|
C|-------------------------------------|
G|-------------------------------------|
D|----------4^3---------------4^3------|
A|--/3--3-3-----4^3----3--3-3-----3^4*-|

d|-------------------------------------|
a|-------------------------------------|
F|-------------------------------------|
C|-------------------------------------|
G|----------6\5---------------6\5------|
D|--/5------4\3-6\5-----------4\3-5/6--|
A|--/3--3-3-----4\3----3--3-3-----3/4*-|

Tekst:
Ring around the rosies pocket full of posies
Ashes, ashes, we all fall down(2x)

Refrein:
Nursery rhymes are said, Couplets in my head
Into my childhood, they're spoon fed
Hidden violence revealed, darkness that seems real
Look at the pages that caused all this evil

1, 2, buckle my shoe, 3,4, shut the door
5,6, pick up sticks, 7,8, lay them straight
London bridge's falling down, falling down, falling down
London bridge's falling down, my fair lady

Refrein

Knick knack paddy whack, give a dog a bone
This old man came rolling home(6x-with mumbling at the end)

Mary had a little lamb her fleece was white as snow(3x)
Mary had a little lamb
Mary had a little lamb her fleece was white as snow(3x)
Mary had a little lamb

herhaal Couplet 1

Refrein

Knick knack paddy whack, give a dog a bone(4x)

ProTabs promo.jpg

Onbeperkt en gratis toegang tot alle 25.000
Tabs & Chords en direct meespelen met

Artiest Liedje

...

Gitaarakkoorden korn - Shoots and ladders

Dankzij de bladmuziek op deze pagina wordt het een stuk makkelijker om met de gitaar mee te spelen met Shoots and ladders van korn De ProTabs van Gitaartabs worden door onze professionele gitaardocenten samengesteld. De tabs en chords zijn door leden zelf geplaatst. Deze undefined van korn met Shoots and ladders is voor je geschreven door gitaartabs

Tabs & Chords van korn - Shoots and ladders

Bij de ProTabs delen we niet alleen de tablatuur maar ook de speelwijze van Shoots and ladders Met een beetje gitaar ervaring moet je dit gitaarliedje zeker kunnen spelen, maar als het niet lukt zijn we er altijd om je te helpen. Door een gratis account aan te maken krijg je niet alleen toegang tot deze tab ,akkoorden & tabs van Shoots and ladders maar kun je ook onbeperkt meespelen met een van de meer dan 25.000 andere tabs & chords in onze database.

Plaats opmerking

Beoordeel deze song

Rate UsDon’t love itNot greatGoodGreatLove itRate Us

Bedankt voor je beoordeling!