Twisted transistor (acoustisch)

Gitaarliedjes, tabs & akkoorden (chords) Twisted transistor (acoustisch) - korn

Songtype: Tab

arrow&v

Markeer als favoriet

Favoriet

Gemarkeerd als favoriet

Capo:

0

korn

korn

Song
Album
Categorie

Twisted transistor (acoustisch)

Downloads
622
Niveau
2

Geplaatst door
gitaartabs
ProTabs-promo.jpg

intro:
e|----------------------------------|
B|----------------------------------|
G|-x-x-x-6/7/6--x-x-6~--x-x-x-x-6/7-| (x2)
D|-x-x-x-x/x/x--x-x-x---x-x-x-x-x/x-|
A|-x-x-x-4/5/4--x-x-4~--x-x-x-x-4/5-|
E|----------------------------------|


couplet:
e|----------------------------------|
B|----------------------------------|
G|-x-x-x-6/7/6--x-x-6~--x-x-x-x-6/7-| (x2)
D|-x-x-x-x/x/x--x-x-x---x-x-x-x-x/x-|
A|-x-x-x-4/5/4--x-x-4~--x-x-x-x-4/5-|
E|----------------------------------|


interlude:
e|-------------------------------|
B|-------------------------------|
G|-x-x-5~--x-x-6~--x-x-1~--x-x-1~| (x2)
D|-x-x-x---x-x-x---x-x-x---x-x-x-|
A|-x-x-3~--x-x-4~--x-x-3~--x-x-3~|
E|-------------------------------|

pre-refrein:
e|---------|
B|---------|
G|-x-5-6-7-| (x3)
D|-x-x-x-x-|
A|-x-3-4-5-|
E|---------|

e|-------------|
B|-------------|
G|-x-x-x-5-6-7-| (x3)
D|-x-x-x-x-x-x-|
A|-x-x-x-3-4-5-|
E|-------------|

e|----|
B|----|
G|-x-x|
D|-x-x|
A|-x-x|
E|----|

refrein:
e|----------------------------------|
B|----------------------------------|
G|-x-x-x-6/7/6--x-x-6~--x-x-x-x-6/7-| (x4)
D|-x-x-x-x/x/x--x-x-x---x-x-x-x-x/x-|
A|-x-x-x-4/5/4--x-x-4~--x-x-x-x-4/5-|
E|----------------------------------|

Tekst:
Hey you, hey you, Devil's little sister
Listening to your Twisted Transistor
Hold it between your legs
Turn it up, turn it up
Low end is coming through
Can't get enough

A lonely life, where no one understands you
But don't give up, because the music do
Music do [x6]

Because the music do
And then it's reaching
Inside you forever preaching
Fuck you too
Your scream's a whisper
Hang on you
Twisted Transistor

Hey you, hey you, finally you get it
The world ain't fair, eat you if you let it
And as your tears fall on
Your breast, your dress
Vibrations coming through
You're in a mess

A lonely life, where no one understands you
But don't give up, because the music do
Music do [x6]

Because the music do
And then it's reaching
Inside you forever preaching
Fuck you too
Your scream's a whisper
Hang on you
Twisted Transistor
Music do, Music do [x4]

Hey you, hey you, this won't hurt a bit
This won't hurt a bit, this won't hurt
Says who? Says who?
Anesthetize this bitch
Anesthetize this bitch, anesthetize!
Just let me be
Between you and me don't fit

Because the music do
And then it's reaching
Inside you forever preaching
Fuck you too
Your scream's a whisper
Hang on you
Twisted Transistor

ProTabs promo.jpg

Onbeperkt en gratis toegang tot alle 25.000
Tabs & Chords en direct meespelen met

Artiest Liedje

...

Gitaarakkoorden korn - Twisted transistor (acoustisch)

Dankzij de bladmuziek op deze pagina wordt het een stuk makkelijker om met de gitaar mee te spelen met Twisted transistor (acoustisch) van korn De ProTabs van Gitaartabs worden door onze professionele gitaardocenten samengesteld. De tabs en chords zijn door leden zelf geplaatst. Deze undefined van korn met Twisted transistor (acoustisch) is voor je geschreven door gitaartabs

Tabs & Chords van korn - Twisted transistor (acoustisch)

Bij de ProTabs delen we niet alleen de tablatuur maar ook de speelwijze van Twisted transistor (acoustisch) Met een beetje gitaar ervaring moet je dit gitaarliedje zeker kunnen spelen, maar als het niet lukt zijn we er altijd om je te helpen. Door een gratis account aan te maken krijg je niet alleen toegang tot deze tab ,akkoorden & tabs van Twisted transistor (acoustisch) maar kun je ook onbeperkt meespelen met een van de meer dan 25.000 andere tabs & chords in onze database.

Plaats opmerking

Verstuur

Beoordeel deze song

Rate UsDon’t love itNot greatGoodGreatLove itRate Us

Bedankt voor je beoordeling!