Sweet goodbyes

Gitaarliedjes, tabs & akkoorden (chords) Sweet goodbyes - krezip

Songtype: Tab

arrow&v

Markeer als favoriet

Favoriet

Gemarkeerd als favoriet

Capo:

4

krezip

krezip

Song
Album
Categorie

Sweet goodbyes

Downloads
5737
Niveau
2
Geplaatst door
mys11
ProTabs-promo.jpg

Intro:

Em D/F# G C Em D C
e |---0---0------------------------------7---7---5---5---3---3---3---3----|
B |---0---0---3---3---3--------3--3------8---8---7---7---5---5---5---5----|
G |-----------2---2---0--------0--0---------------------------------------| 2x
D |-----------------------------------------------------------------------|
A |----------------------0-2-3---3---3/7---7---5---5---3---3---3---3------|
E |-0---0---2---2---3-----------------------------------------------------|


Couplet:

Em D/F# G C Em D C
e |---0---0-----------------------------0---0-----------------------------|
B |---0---0---3---3---3--------3--3-----0---0-----3----3-----3----3-------|
G |-----------2---2---0--------0--0---------------0----0-----0----0-------| 2x
D |-----------------------------------------------------------------------|
A |----------------------0-2-3---3--------------5---5------3----3---------|
E |-0---0---2---2---3-----------------0---0-------------------------------|

Can't sleep, cause everything changing, you don't want to leave things behind.
Can't breathe there's too many things, going on, going wrong in your life.



Pre-chorus:
C Cmaj7 D
e |------0---0---0---0---0---0---0---0---0---0---0---0---0---0-0----------|
B |------1---1---0---0---1---1---0---0---1---1---0---0---1---1-3----------|
G |------0---0---0---0---0---0---0---0---0---0---0---0---0---0-0----------|
D |-----------------------------------------------------------------------|
A |----3---3---3---3---3---3---3---3---3---3---3---3---3---3---5----------|
E |-----------------------------------------------------------------------|
Tears in your eyes sweet good bye's



Chorus:
D C D Em
e |----0------------------------------------------------------------------|
B |----3-------------1---1---3---3---5---5--------------------------------|
G |----2-------------0---0---0---0---0---0--------------------------------|
D |----0------------------------------------------------------------------|
A |----------------3---3---5---5---7---7----------------------------------|
E |-----------------------------------------------------------------------|
I know how you feel right now

G/B c d g D/F#
e |-----------------------------------------------------------------------|
B |----0---0---1---1---3---3---0---0--------------------------------------|
G |----0---0---0---0---0---0---0---0---2---2------------------------------|
D |------------------------------------0---0------------------------------|
A |---2--2---3---3---5---5------------------------------------------------|
E |--------------------------3---3---2---2--------------------------------|
Losing dreams you've come to care about


e |-----------------------------------------------------------------------|
B |-----------------1---1---3---3---0---0---------------------------------|
G |-------2---2-----0---0---0---0---0---0---------------------------------|
D |-------0---0-----------------------------------------------------------|
A |---------------3---3---5---5-------------------------------------------|
E |-----2---2---------------------3---3-----------------------------------|
I know what you need right now

e |-----------------------------------------------------------------------|
B |-----------------1---1---1---1---3---3---3---3-------------------------|
G |--------2---2----0---0---0---0---0---0---0---0-------------------------|
D |--------0---0----------------------------------------------------------|
A |---------------3---3---3---3---5---5---5---5---------------------------|
E |------2---2------------------------------------------------------------|
You need to come on home so I can hold you tight



Em D/F# G C Em D C
e |---0---0------------------------------7---7---5---5---3---3---3---3---|
B |---0---0---3---3---3--------3--3------8---8---7---7---5---5---5---5---|
G |-----------2---2---0--------0--0--------------------------------------|
D |----------------------------------------------------------------------|
A |----------------------0-2-3-------3/7---7---5---5---3---3---3---3-----|
E |-0---0---2---2---3----------------------------------------------------|
Get you through the night, I'll get you trough the night



--==Couplet

Wake up, the sun's shining bright,
Let’s go out up, and into the light
Shape up, we won't forget,
still there's lots of love left to hold tight


--== Pre-Chorus

Tears in your eyes, sweet goodbye's...


--== Chorus

I know how you feel right now
Losing dreams you've come to care about
I know what you need right now
You need to come on home so I can hold you tight
Get you through the night


C D/E
e |-----3---3---3---3----2---2---2---2----------------------------------|
B |-----0---0---0---0----3---3---3---3----------------------------------|
G |---------------------------------------------------------------------|
D |---------------------------------------------------------------------|
A |---3---3---3---3-----------------------------------------------------|
E |--------------------0---0---0---0------------------------------------|
Everything of love between us, will get us trough the night

C D/E
e |-----3---3---3---3----2---2---3--------------------------------------|
B |-----0---0---0---0----3---3---3--------------------------------------|
G |---------------------------------------------------------------------|
D |---------------------------------------------------------------------|
A |---3---3---3---3-------------------2-3-------------------------------|
E |--------------------0---0---3---3------------------------------------|
All the things we've lost will teach us, see the pretty things in life

C D/E
e |-----3---3---3---3----2---2---2---2----------------------------------|
B |-----0---0---0---0----3---3---3---3----------------------------------|
G |---------------------------------------------------------------------|
D |---------------------------------------------------------------------|
A |---3---3---3---3---2---2---2---2-------------------------------------|
E |---------------------------------------------------------------------|
all the places that we've been to the people we


C D/E
e |-----0---0---0---0---------------------------------------------------|
B |-----1---1---1---1----3---3---3---3----------------------------------|
G |----------------------2---2---2---2----------------------------------|
D |-------------------0---0---0---0-------------------------------------|
A |---0---0---0---0-----------------------------------------------------|
E |---------------------------------------------------------------------|
relate to, all the love that we give in to, blow the


C Cmaj7 D
e |------0---0---0---0---0---0---0---0---0---0---0---0---0---0-0----------|
B |------1---1---0---0---1---1---0---0---1---1---0---0---1---1-3----------|
G |------0---0---0---0---0---0---0---0---0---0---0---0---0---0-0----------|
D |-----------------------------------------------------------------------|
A |----3---3---3---3---3---3---3---3---3---3---3---3---3---3---5----------|
E |-----------------------------------------------------------------------|
Tears from our eyes, sweet goodbye's...


--== Chorus
I know how you feel right now
Losing dreams you've come to care about
I know what you need right now
You need to come on home so I can hold you tight


Chorus:
D C D Em
e |----0------------------------------------------------------------------|
B |----3-------------1---1---3---3---5---5--------------------------------|
G |----2-------------0---0---0---0---0---0--------------------------------|
D |----0------------------------------------------------------------------|
A |----------------3---3---5---5---7---7----------------------------------|
E |-----------------------------------------------------------------------|
I know how you feel right now

G/B c d g D/F#
e |-----------------------------------------------------------------------|
B |----0---0---1---1---3---3---0---0--------------------------------------|
G |----0---0---0---0---0---0---0---0---2---2------------------------------|
D |------------------------------------0---0------------------------------|
A |---2--2---3---3---5---5------------------------------------------------|
E |--------------------------3---3---2---2--------------------------------|
Losing dreams you've come to care about


e |-----------------------------------------------------------------------|
B |-----------------1---1---3---3---0---0---------------------------------|
G |-------2---2-----0---0---0---0---0---0---------------------------------|
D |-------0---0-----------------------------------------------------------|
A |---------------3---3---5---5-------------------------------------------|
E |-----2---2---------------------3---3-----------------------------------|
I know what you need right now

e |-----------------------------------------------------------------------|
B |-----------------1---1---1---1---3---3---3---3-------------------------|
G |--------2---2----0---0---0---0---0---0---0---0-------------------------|
D |--------0---0----------------------------------------------------------|
A |---------------3---3---3---3---5---5---5---5---------------------------|
E |------2---2------------------------------------------------------------|
You need to come on home so I can hold you tight



D G
e |--------------------------------------------------------2-------3------|
B |-----3---3---3---3----3-----3-------3---3-----3-----3----------3-------|
G |-----0---0---0---0------0----0--0----0---0-----0------0-------0--------|
D |------------------------------0-------0---0-----0-----------0----------|
A |---5---5---5---5-------------------------------------------2-----------|
E |--------------------3-----3-------3---------3-----3-------3------------|
I’ll get you through the night

ProTabs promo.jpg

Onbeperkt en gratis toegang tot alle 25.000
Tabs & Chords en direct meespelen met

Artiest Liedje

...

Gitaarakkoorden krezip - Sweet goodbyes

Dankzij de bladmuziek op deze pagina wordt het een stuk makkelijker om met de gitaar mee te spelen met Sweet goodbyes van krezip De ProTabs van Gitaartabs worden door onze professionele gitaardocenten samengesteld. De tabs en chords zijn door leden zelf geplaatst. Deze undefined van krezip met Sweet goodbyes is voor je geschreven door mys11

Tabs & Chords van krezip - Sweet goodbyes

Bij de ProTabs delen we niet alleen de tablatuur maar ook de speelwijze van Sweet goodbyes Met een beetje gitaar ervaring moet je dit gitaarliedje zeker kunnen spelen, maar als het niet lukt zijn we er altijd om je te helpen. Door een gratis account aan te maken krijg je niet alleen toegang tot deze tab ,akkoorden & tabs van Sweet goodbyes maar kun je ook onbeperkt meespelen met een van de meer dan 25.000 andere tabs & chords in onze database.

Plaats opmerking

Beoordeel deze song

Rate UsDon’t love itNot greatGoodGreatLove itRate Us

Bedankt voor je beoordeling!