Wilhelmus van nassouwe

Gitaarliedjes, tabs & akkoorden (chords) Wilhelmus van nassouwe - laura5erberg

Songtype: Tab

arrow&v

Markeer als favoriet

Favoriet

Gemarkeerd als favoriet

Capo:

0

laura5erberg

laura5erberg

Song
Album
Categorie

Wilhelmus van nassouwe

Downloads
1758
Niveau
1
Geplaatst door
laura jwt
ProTabs-promo.jpg

E[----------------------------------------------------------------------------------------------------
B[---------------------------0-----1----------0----------0-----1-----0----------------------------
G[---------0-----0-----2--------------2----------2------------------------2-----0-----2-----0---
D[---0-----------------------------------------------------------------------------------------------
A[----------------------------------------------------------------------------------------------------
E[----------------------------------------------------------------------------------------------------
Wil-hel-mus van Nas-sou-we ben ik van duit-schen bloet;

E[----------------------------------------------------------------------------------------------------
B[---------------------------0-----1----------0----------0-----1-----0----------------------------
G[---------0-----0-----2--------------2----------2------------------------2-----0-----2-----0---
D[---0-----------------------------------------------------------------------------------------------
A[----------------------------------------------------------------------------------------------------
E[----------------------------------------------------------------------------------------------------
Den va-der-lant ghe-trou-we blijf ick tot in den doet.

E[----------------------------------------------------------------------------------------------------
B[---0-----1-----3-----5-----3-----1-----0-----------0----1-----0------------------------------
G[-------------------------------------------------2------------------------2-----0-----2----------
D[----------------------------------------------------------------------------------------------------
A[----------------------------------------------------------------------------------------------------
E[----------------------------------------------------------------------------------------------------
Een prin-ce van O-ran-je Ben ick vrij on-ver-veert;

............................
Den Co------- ninck van his-pan-je Heb ick al-tijd ghe-eert

De rest komt nog.. ik hoop dat het jullie lukt om dit te spelen.


ProTabs promo.jpg

Onbeperkt en gratis toegang tot alle 25.000
Tabs & Chords en direct meespelen met

Artiest Liedje

...

Gitaarakkoorden laura5erberg - Wilhelmus van nassouwe

Dankzij de bladmuziek op deze pagina wordt het een stuk makkelijker om met de gitaar mee te spelen met Wilhelmus van nassouwe van laura5erberg De ProTabs van Gitaartabs worden door onze professionele gitaardocenten samengesteld. De tabs en chords zijn door leden zelf geplaatst. Deze undefined van laura5erberg met Wilhelmus van nassouwe is voor je geschreven door laura jwt

Tabs & Chords van laura5erberg - Wilhelmus van nassouwe

Bij de ProTabs delen we niet alleen de tablatuur maar ook de speelwijze van Wilhelmus van nassouwe Met een beetje gitaar ervaring moet je dit gitaarliedje zeker kunnen spelen, maar als het niet lukt zijn we er altijd om je te helpen. Door een gratis account aan te maken krijg je niet alleen toegang tot deze tab ,akkoorden & tabs van Wilhelmus van nassouwe maar kun je ook onbeperkt meespelen met een van de meer dan 25.000 andere tabs & chords in onze database.

Plaats opmerking

Beoordeel deze song

Rate UsDon’t love itNot greatGoodGreatLove itRate Us

Bedankt voor je beoordeling!