Determinate

Gitaarliedjes, tabs & akkoorden (chords) Determinate - lemonade mouth

Songtype: Tab

arrow&v

Markeer als favoriet

Favoriet

Gemarkeerd als favoriet

Capo:

0

lemonade mouth

lemonade mouth

Song
Album
Categorie

Determinate

-

Downloads
1503
Niveau
1
Geplaatst door
gitaartabs
ProTabs-promo.jpg

INTRO

e|------12-11-12-------------------------------------------------------------------|
B|----9------------------14-12-14--------------------------------------------------|
G|----------------------------------------14-13-11~--------------------------------|
D|-11-----------------14---------------11------------------------------------------|
A|-----------------12--------------------------------------------------------------|
E|----------------------------------14---------------------------------------------|


"Tryin' hard to fight these tears, I'm crazy worried"

e|------12-11-12-------------------------------------------------------------------|
B|----9------------------14-12-14--------------------------------------------------|
G|----------------------------------------14-13-11~--------------------------------|
D|-11-----------------14---------------11------------------------------------------|
A|-----------------12--------------------------------------------------------------|
E|----------------------------------14---------------------------------------------|


"Messin' with my head these tears, I'm so sorry"

e|------12-11-12-------------------------------------------------------------------|
B|----9------------------14-12-14--------------------------------------------------|
G|----------------------------------------14-13-11~--------------------------------|
D|-11-----------------14---------------11------------------------------------------|
A|-----------------12--------------------------------------------------------------|
E|----------------------------------14---------------------------------------------|


"You know, you gotta get out I can't take it"

e|---------------------------------------------------------------------------------|
B|---------------------------------------------------------------------------------|
G|----------------------------------------------------13---------------------------|
D|-------------------------------------------------------14-16-14------------------|
A|-12----12-14-16---14----14-16-18---16----16-18-19--------------------------------|
E|----12---------------14---------------16-----------------------------------------|

"That's what bein'
friends about"
e|---------------------------------------------------------------------------------|
B|---------------------------------------------------------------------------------|
G|--------------------------------------------------------13-14--------------------|
D|------------------13---------------------------11----11--------------------------|
A|-12-------15-19------14-14-16-14---12----12-14----14-----------------------------|
E|----12-12-----------------------------14-----------------------------------------|




VERSE

"I, I wanna I can't Tonight I wonder I've been"
cry deny
e|----------------------------------------------------------------------------------|
B|----------------------------------------------------------------------------------|
G|----6-6-6----------6-6-6----------6-6-6-------------9-8-5-------------------------|
D|----6-6-6----------6-6-6----------6-6-6-------------9-7-4-------------------------|
A|----4-4-4----------4-4-4----------4-4-4-------------------------------------------|
E|----------------------------------------------------------------------------------|

"High And get It isn't I gotta live in my life"
Inside right
e|----------------------------------------------------------------------------------|
B|----------------------------------------------------------------------------------|
G|----6-6-6----------6-6-6----------6-6-6-------------9-8-5-------------------------|
D|----6-6-6----------6-6-6----------6-6-6-------------9-7-4-------------------------|
A|----4-4-4----------4-4-4----------4-4-4-------------------------------------------|
E|----------------------------------------------------------------------------------|

"I know I, I know I, I know I gotta do it"
"I know I, I know I, I know I gotta do it"
e|----------------------------------------------------------------------------------|
B|----------------------------------------------------------------------------------|
G|----------------------------------------------------------------------------------|
D|----------------------------------------------------------------------------------|
A|-9-9-9-9-9-9-9-9-7-7-7-7-7-7-7-7-6-6-6-6-6-6-6-6-6-6-6-6-6-6-6-6------------------|
E|----------------------------------------------------------------------------------|




CHORUS

"Gotta turn the world into Determinate, D-Determinate"
your dance floor
e|----------------------------------------------------------------------------------|
B|----------------------------------------------------------------------------------|
G|----------------------------------------------------------------------------------|
D|-7-7-7-7-7-7-7-7-9-9-9-9-9-9-9-9-11-11-11-11-11-11-11-11-14-14-14-14-14-14-14-14--|
A|-7-7-7-7-7-7-7-7-9-9-9-9-9-9-9-9-11-11-11-11-11-11-11-11-14-14-14-14-14-14-14-14--|
E|-5-5-5-5-5-5-5-5-7-7-7-7-7-7-7-7-9--9--9--9--9--9--9--9--12-12-12-12-12-12-12-12--|

"Push until you can't Determinate, D-Determinate"
and then demand more
e|----------------------------------------------------------------------------------|
B|----------------------------------------------------------------------------------|
G|----------------------------------------------------------------------------------|
D|-7-7-7-7-7-7-7-7-9-9-9-9-9-9-9-9-11-11-11-11-11-11-11-11-14-14-14-14-14-14-14-14--|
A|-7-7-7-7-7-7-7-7-9-9-9-9-9-9-9-9-11-11-11-11-11-11-11-11-14-14-14-14-14-14-14-14--|
E|-5-5-5-5-5-5-5-5-7-7-7-7-7-7-7-7-9--9--9--9--9--9--9--9--12-12-12-12-12-12-12-12--|

"You and me together, we can make it better"
e|----------------------------------------------------------------------------------|
B|----------------------------------------------------------------------------------|
G|----------------------------------------------------------------------------------|
D|-7-7-7-7-7-7-7-7-9-9-9-9-9-9-9-9-11-11-11-11-11-11-11-11-14-14-14-14-14-14-14-14--|
A|-7-7-7-7-7-7-7-7-9-9-9-9-9-9-9-9-11-11-11-11-11-11-11-11-14-14-14-14-14-14-14-14--|
E|-5-5-5-5-5-5-5-5-7-7-7-7-7-7-7-7-9--9--9--9--9--9--9--9--12-12-12-12-12-12-12-12--|

"Gotta turn the world into Determinate, D-Determinate"
your dance floor
e|----------------------------------------------------------------------------------|
B|--------------------------------------------------9-8-5---------------------------|
G|--------------------------------------9-9-----------------------------------------|
D|-7-7-7-7-7-7-7-7-9-9-9-9-9-9-9-9---11-----11---11---------------------------------|
A|-7-7-7-7-7-7-7-7-9-9-9-9-9-9-9-9--------------------------------------------------|
E|-5-5-5-5-5-5-5-5-7-7-7-7-7-7-7-7--------------------------------------------------|

ProTabs promo.jpg

Onbeperkt en gratis toegang tot alle 25.000
Tabs & Chords en direct meespelen met

Artiest Liedje

...

Gitaarakkoorden lemonade mouth - Determinate

Dankzij de bladmuziek op deze pagina wordt het een stuk makkelijker om met de gitaar mee te spelen met Determinate van lemonade mouth De ProTabs van Gitaartabs worden door onze professionele gitaardocenten samengesteld. De tabs en chords zijn door leden zelf geplaatst. Deze undefined van lemonade mouth met Determinate is voor je geschreven door gitaartabs

Tabs & Chords van lemonade mouth - Determinate

Bij de ProTabs delen we niet alleen de tablatuur maar ook de speelwijze van Determinate Met een beetje gitaar ervaring moet je dit gitaarliedje zeker kunnen spelen, maar als het niet lukt zijn we er altijd om je te helpen. Door een gratis account aan te maken krijg je niet alleen toegang tot deze tab ,akkoorden & tabs van Determinate maar kun je ook onbeperkt meespelen met een van de meer dan 25.000 andere tabs & chords in onze database.

Plaats opmerking

Beoordeel deze song

Rate UsDon’t love itNot greatGoodGreatLove itRate Us

Bedankt voor je beoordeling!