Take look around

Gitaarliedjes, tabs & akkoorden (chords) Take look around - limp bizkit

Songtype: Tab

arrow&v

Markeer als favoriet

Favoriet

Gemarkeerd als favoriet

Capo:

0

limp bizkit

limp bizkit

Song
Album
Categorie

Take look around

Downloads
1832
Niveau
2

Geplaatst door
gitaartabs
ProTabs-promo.jpg

Titel: Take look around
Artiest: Limp Bizkit
Album:
Capo:
Tuning: D-A-D-G-B-E
uitgezocht door:


--------------------------------------------------------------------------------

Mijn favoriete Limp Bizkit nummer. Slechte film trouwens. Zelf uitgezocht.

Artist: Limp Bizkit
Song: Mission Impossible 2 Theme

Dropped D tuning (D A E G B E)


RIFF1
E-----------------------------|----------------------------------------|
B-----------------------------|----------------------------------------|
G-----------------------------|----------------------------------------|
D---------------------4h6p4---|----------------------------------------|
A---6~--6~--6~--6~------------|-6~~~6~~~6~~~6~~~----4~--5~-------------|
D-----------------------------|----------------------------------------|

RIFF2
E----14p11--------|---14p11---------|----14p11-------|--14p11--------------------------|-------|
B-----------------|-----------------|----------------|---------------------------------|-------|
G-----------15~---|----------14~----|---------13~----|--------16-16-16-16-15-15-15-15--|-------|
D-----------------|-----------------|----------------|---------------------------------|---%---|
A-----------------|-----------------|----------------|---------------------------------|-------|
D-----------------|-----------------|----------------|---------------------------------|-------|

RIFF3
E----------------------------|-----------------------------|
B----------------------------|-----------------------------|
G----------------------------|-----------------------------|
D----------------------------|-----------------------------|
A----------------------------|-----------------------------|
D--0-2-0-2-0-2-0-2--5--7-----|--0-2-0-2-0-2-0-2---0--1-----|

RIFF4

D E D E D E D E G A D E D E D E D E D Eb
E----------------------------|-----------------------------|-------|
B----------------------------|-----------------------------|-------|
G----------------------------|-----------------------------|-------|
D----------------------------|-----------------------------|---%---|
A--0-2-0-2-0-2-0-2--5--7-----|--0-2-0-2-0-2-0-2---0--1-----|-------|
D--0-2-0-2-0-2-0-2--5--7-----|--0-2-0-2-0-2-0-2---0--1-----|-------|

RIFF5

E-----------------|-----------------|-------|
B-----------------|-----------------|-------|
G-----------------|-----------------|-------|
D-----------------|-----------------|---%---|
A-----------------|-----------------|-------|
D--2--2--5--7-----|--2--2--0--1-----|-------|



*************************************************************************************************

Intro (RIFF1)

(RIFF2)
All attention in the world today
all the little girls givin' up in the world today
with the good comes the bad and the bad comes the good but i'm a live
my life like i should
now all the critics wanna hit it is said, can how he did it just
because they don't get it
but i'll stay fit it do ever commit it now this red cap gets a rap from
his critics

(RIFF1)
do we always gotta crash (always gotta crash)
do we always got the other side of life (live inside a life)
life's just a blast moving really fast
better stay on top or i'll kick you in the ass

(RIFF2)
Follow me into a solo
remember that kid so what you wanna do
and where you gonna run when you're staring down the cable of the _ mic
pointed at your grail like a gun
Limp Bizkit is rocking the set
it's like russian roulette when you place in you bet
so don't be upset when you broke and youre done coz' i'm a be the one
till i check (till i check)

(RIFF3)
I know why you wanna hate me
I know why you wanna hate me
I know why you wanna hate me
coz' hate is all the world has even seen lately
I know why you wanna hate me
I know why you wanna hate me
now i know why you wanna hate me
coz' hate is all the world has even seen lately

(RIff4)

(RIFF4)
and now you wanna hate me
coz' hate is all the world has even seen lately

(RIFF4)

(RIFF4)
now i know why you wanna hate me
coz' hate is all the world has even seen lately

(RIFF1)

(RIFF2)
does any body really know the secret
or the combination for this life and where they keep it
it's kinda sad when you dont know the meaning
but everything happens for a reason (everything happens for a reason)
I don't even know what i should say coz' i'm an idiot a looser
microphone abuser
i analyze every second i exist
beating up my mind every second with my fist
and everybody wanna run, everybody wanna hide from the gun
you can take the ride to this life if you want
but you cant take the edge of the knife (no sir)
and now you want your money back
but you're the knife coz' you're brain fried from the sack
and there aint' nothin' i cant do coz' life is a lesson
you learn it when you're through.

(RIFF3)
I know why you wanna hate me
I know why you wanna hate me
I know why you wanna hate me
coz' hate is all the world has even seen lately
I know why you wanna hate me
I know why you wanna hate me
now i know why you wanna hate me
coz' hate is all the world has even seen lately

(RIff4)

(RIFF4)
and now you wanna hate me
coz' hate is all the world has even seen lately

(RIFF4)

(RIFF4)
now you wanna hate me
coz' hate is all the world has even seen lately

(RIFF5)

(RIFF1)
shhh...
now
i
know
why
now
i
know
why (I know why you wanna hate me)
now (now I know why you wanna hate me)
i
know (now I know why you wanna hate me)
why
now (now I know why you wanna hate me)
i
know (now I know why you wanna hate me)
why...

(RIFF4)
now i know why you wanna hate me
now i know why you wanna hate me
now i know why you wanna hate me
coz' hate is all the world has even seen lately

(RIFF4)

(RIFF4)
coz' hate is all the world has even seen lately

(RIFF4)

(RIFF4)
coz' hate is all the world has even seen lately

(RIFF2)

ProTabs promo.jpg

Onbeperkt en gratis toegang tot alle 25.000
Tabs & Chords en direct meespelen met

Artiest Liedje

...

Gitaarakkoorden limp bizkit - Take look around

Dankzij de bladmuziek op deze pagina wordt het een stuk makkelijker om met de gitaar mee te spelen met Take look around van limp bizkit De ProTabs van Gitaartabs worden door onze professionele gitaardocenten samengesteld. De tabs en chords zijn door leden zelf geplaatst. Deze undefined van limp bizkit met Take look around is voor je geschreven door gitaartabs

Tabs & Chords van limp bizkit - Take look around

Bij de ProTabs delen we niet alleen de tablatuur maar ook de speelwijze van Take look around Met een beetje gitaar ervaring moet je dit gitaarliedje zeker kunnen spelen, maar als het niet lukt zijn we er altijd om je te helpen. Door een gratis account aan te maken krijg je niet alleen toegang tot deze tab ,akkoorden & tabs van Take look around maar kun je ook onbeperkt meespelen met een van de meer dan 25.000 andere tabs & chords in onze database.

Plaats opmerking

Verstuur

Beoordeel deze song

Rate UsDon’t love itNot greatGoodGreatLove itRate Us

Bedankt voor je beoordeling!