Numb

Gitaarliedjes, tabs & akkoorden (chords) Numb - linkin park

Songtype: Tab

arrow&v

Markeer als favoriet

Favoriet

Gemarkeerd als favoriet

Capo:

0

linkin park

linkin park

Song
Album
Categorie

Numb

Downloads
1444
Niveau
1

Geplaatst door
gitaartabs
ProTabs-promo.jpg

dit is numb van linkin park.
het kan allemaal een beetje vaag zijn maar dan moet je het maar ff aan me vragen.

Intro-w/distortion
Eb|------------------------15---18--17--------------18--17---------|
Bb|-(15)--------15--18--15---------------15--18--15--------18------|
Gb|-fade in--------------------------------------------------------|
Db|----------------------------------------------------------------|
Ab|----------------------------------------------------------------|
Db|----------------------------------------------------------------|

Intro cont. w/dist
Eb|----------------------------------------------------------------|
Bb|----------------------------------------------------------------|
Gb|----------------------------------------------------------------|
Db|-5--5--5-5-5--1--1--1-1-1--8--8--8-8-8--3--3--3-3-3-------------|X2
Ab|-5--5--5-5-5--1--1--1-1-1--8--8--8-8-8--3--3--3-3-3-------------|
Db|-5--5--5-5-5--1--1--1-1-1--8--8--8-8-8--3--3--3-3-3-------------|




Riff 1/2
Eb|----------------------------------------------------------------|
Bb|----------------------------------------------------------------|
Gb|----------------------------------------------------------------|
Db|-5------------5------5---5---1------------1-1-1-----------------|
Ab|-5------------5------5---5---1------------1-1-1-----------------|
Db|-5------------5------5---5---1------------1-1-1-----------------|
I'm tired of being what you want me to be
Riff 2/2
Eb|----------------------------------------------------------------|
Bb|----------------------------------------------------------------|
Gb|----------------------------------------------------------------|
Db|-8--------------8-8-8------3------------3-3-3-------------------|
Ab|-8--------------8-8-8------3------------3-3-3-------------------|
Db|-8--------------8-8-8------3------------3-3-3-------------------|
Feeling so faithless, lost under the surface

herhaal dit stuk to het refrein:



Chorus-w/dist
Eb|-----------------------------------------------------------------|
Bb|-----------------------------------------------------------------|
Gb|-----------------------------------------------------------------|
Db|5--------------1----------------------8---------------------3----|
Ab|5--------------1----------------------8---------------------3----|
Db|5--------------1----------------------8---------------------3----|
I've become so numb, I can't feel you there, I've become so tired,
so much more

Eb|-----------------------------------------------------------------|
Bb|-----------------------------------------------------------------|
Gb|-----------------------------------------------------------------|
Db|5------------------1-------------------8-------------------3-----|
Ab|5------------------1-------------------8-------------------3-----|
Db|5------------------1-------------------8-------------------3-----|
a-ware, I'm becoming this, all I want to do, is be more like me,

Eb|-------------------|
Bb|-------------------|
Gb|-------------------|
Db|----------------5--|
Ab|----------------5--|
Db|----------------5--|
and be less like you



Chorus-with distortion-this time add a strumming pattern to the chords
Eb|-------------------------|
Bb|-------------------------|
Gb|-------------------------|
Db|-----------------1--1----|
Ab|-----------------1--1----|
Db|-----------------1--1----|
and be less like you (instead of 555)

Bridge-w/dist
Eb|--------------------------------------------------------------------------|
Bb|--------------------------------------------------------------------------|
Gb|--------------------------------------------------------------------------|
Db|-1--1-3--3--3-3---5-5-5-5-7-7-7-7-8-8-8-8-0-0-0-0-1--1-1-1---3--3--3---3--|
Ab|-1--1-3--3--3-3---5-5-5-5-7-7-7-7-8-8-8-8-0-0-0-0-1--1-1-1---3--3--3---3--|
Db|-1--1-3--3--3-3---5-5-5-5-7-7-7-7-8-8-8-8-0-0-0-0-1--1-1-1---3--3--3---3--|
And I know, I may end up f-a-i-l-i-n-g too, But I know, you were
Eb|-------------------------------------------------------------------|
Bb|-------------------------------------------------------------------|
Gb|-------------------------------------------------------------------|
Db|0---------0----------------0----0----------0----0---0-0-0----------|
Ab|0---------0----------------0----0----------0----0---0-0-0----------|
Db|0---------0----------------0----0----------0----0---0-0-0----------|
Just like me, with someone disappointed in you * * *

Chorus-w/dist-play chords repeatingly eg.-5-5-5-5
-5-5-5-5
-5-5-5-5

I've become so numb, I can't feel you there,-Riff 1/2
tired of being what you want me to be,riff-2/2
I've become so numb, I can't feel you there,riff 1/2
tired of being what you want me to be-riff 2/2

Guitar outro-w/o dist
Eb|---------------------------------------------------------------------|
Bb|---------------------------------------------------------------------|
Gb|---------------------------------------------------------------------|
Db|-5--5--5-5-5-1--1--1-1-1-8--8--8-8-8-3--3--3-3-3-0-----1-----1-----0-|
Ab|-5--5--5-5-5-1--1--1-1-1-8--8--8-8-8-3--3--3-3-3-0-----1-----1-----0-|
Db|-5--5--5-5-5-1--1--1-1-1-8--8--8-8-8-3--3--3-3-3-0-----1-----1-----0-|

And it's finally finished! Oh, wait, the order:
Intro
Verse 1
Chorus
Verse 2
Chorus
Bridge
Chorus
Outro
Guitar outro

dit is engels omdat het van www.ultimate-guitar.com komt

ProTabs promo.jpg

Onbeperkt en gratis toegang tot alle 25.000
Tabs & Chords en direct meespelen met

Artiest Liedje

...

Gitaarakkoorden linkin park - Numb

Dankzij de bladmuziek op deze pagina wordt het een stuk makkelijker om met de gitaar mee te spelen met Numb van linkin park De ProTabs van Gitaartabs worden door onze professionele gitaardocenten samengesteld. De tabs en chords zijn door leden zelf geplaatst. Deze undefined van linkin park met Numb is voor je geschreven door gitaartabs

Tabs & Chords van linkin park - Numb

Bij de ProTabs delen we niet alleen de tablatuur maar ook de speelwijze van Numb Met een beetje gitaar ervaring moet je dit gitaarliedje zeker kunnen spelen, maar als het niet lukt zijn we er altijd om je te helpen. Door een gratis account aan te maken krijg je niet alleen toegang tot deze tab ,akkoorden & tabs van Numb maar kun je ook onbeperkt meespelen met een van de meer dan 25.000 andere tabs & chords in onze database.

Plaats opmerking

Verstuur

Beoordeel deze song

Rate UsDon’t love itNot greatGoodGreatLove itRate Us

Bedankt voor je beoordeling!