Brothers unawar

Gitaarliedjes, tabs & akkoorden (chords) Brothers unawar - live

Songtype: Tab

arrow&v

Markeer als favoriet

Favoriet

Gemarkeerd als favoriet

Capo:

0

live

live

Song
Album
Categorie

Brothers unawar

Downloads
744
Niveau
1

Geplaatst door
gitaartabs
ProTabs-promo.jpg

Brothers Unawar
1/2 step downtuned

Structure: Intro
Verse
Chorus
Bridge
Verse
Chorus
Chorus
Solo
Interlude
Chorus
Chorus
Extro



. - staccato
r - rest
= - hold



_____________________________
<<<<<<<<<<<--Intro-->>>>>>>>>>>
~~~~~~~~~~~~~~~~~~~~~~~~~~~~~

. .
G------------------------------------|------------------------------|
u-------------6-------r---6---r---5==|==========================----|
i-------------7-------r---7---r---5==|==========================----|
t-------------7-------r---7---r---5==|==========================----|
a-0-h-5-------5-------r---5---r---3==|==========================----|
r------------------------------------|----------------------------5-|
| | | | | | | |
B------------------------------------|------------------------------|
a---------------rest-----------------|------------rest--------------|
s------------------------------------|------------------------------|
s------------------------------------|------------------------------|


. .
G---------------------------------|------------------------------|
u----------6-------r---6---r---5==|==========================----|
i----------7-------r---7---r---5==|==========================----|
t----------7-------r---7---r---5==|==========================----| Proceed
a--5-------5-------r---5---r---3==|==========================----|
r---------------------------------|------------------------------| directly
| | | | | | | |
B---------------------------------|------------------------------| to
a------------------3--------------|------------------------------|
s--------------3h5-----3----------|---------------0h3---3====--4-| verse!
s--------------------------3---5--|------------------------------|


_____________________________
<<<<<<<<<<<--Verse-->>>>>>>>>>>
~~~~~~~~~~~~~~~~~~~~~~~~~~~~~

Play eight times for first verse, 10 for second:

The verses are almost the same as the intro:

. .
G---------------------------------|------------------------------|
u--r-------6-------r---6---r---5==|==========================----|
i--r-------7-------r---7---r---5==|==========================----|
t--r-------7-------r---7---r---5==|==========================----|
a--r-------5-------r---5---r---3==|==========================----|
r---------------------------------|------------------------------|
| | | | | | | |
B---------------------------------|------------------------------|
a----------------------3----------|------------------------------|
s--5-------r---0---3h5-----3------|---------------0h3---3====--4-|
s------------------------------5==|========----------------------|

Every so often the guitar will change a bit (listen close to second
verse), and the Bass changes too (just listen).



During second chorus there are a few really neat-o lead stuff:
(Just play them, and you'll know where they go, if you listen)

--17-17-17-17--
--17-17-17-17-- These are sixteenth notes,
--------------- and are played with an echo.
---------------
---------------
---------------


--5------------
--5h6---------- This, too is played
--5h7---------- with an echo.
---------------
---------------
---------------


---------------
---------------
---------------
--7p5h7p5h7p5-- No echo here!
---------------
---------------



_________________________________
<<<<<<<<<<<--Prechorus-->>>>>>>>>>>
~~~~~~~~~~~~~~~~~~~~~~~~~~~~~~~~~



G---------------------------------|--------------------------------|
u--------------6------------------|-------------6------------------|
i------------------7-----------7--|-----------------7-----------7--|
t----------8-----------8----------|---------8-----------8----------|
a------8-------------------8------|-----8-------------------8------|
r--6------------------------------|-6------------------------------|
| | | | | | | |
B---------------------------------|--------------------------------|
a---------------------------------|--------------------------------|
s---------------------------------|--------------------------------|
s--6---6---6---6---6---6---6---6--|-6---6---6---6---6---6---6---6--|




G---------------------------------|--------------------------------|
u------------------5--------------|--------------------------------|
i----------------------7----------|--------------------------------|
t----------7---------------6---7==|=============================---|
t------7-----------------------7==|=============================---|
r--5---------------------------5==|=============================---|
| | | | | | | |
B---------------------------------|--------------------------------|
a------------------4---5---6---7==|=============================---|
s---------------------------------|--------------------------------|
s--5---5---5---5------------------|--------------------------------|


When playing this section after the interlude, add an extra measure
of that A chord.


______________________________
<<<<<<<<<<<--Chorus-->>>>>>>>>>>
~~~~~~~~~~~~~~~~~~~~~~~~~~~~~~

Rhythm guitar plays same chords as in verse, but more strums.
Listen close to C chord (x3555x) to hear it switch to and
from a Csus chord (x3556x).

R: Dm C Csus C
| | | | | | | |
B----------7----------------------|-------------2-------5------6-|
a----------------------3----------|------------------------------|
s--5-----------0---3h5-----3------|---------0-------3-------4----|
s------------------------------5==|========----------------------|


Last two times through, add some lead thingies.

______________________________
<<<<<<<<<<<--Bridge-->>>>>>>>>>>
~~~~~~~~~~~~~~~~~~~~~~~~~~~~~~


G--5-----------------------5------|-6---------------8------------|
u--5-----------------------5------|-6---------------8------------|
i--6-----------------------6------|-7---------------9------------|
t--7-----------------------7------|-8--------------10------------|
a--7-----------------------7------|-8--------------10------------|
r--5-----------------------5------|-6---------------8------------|
| | | | | | | |
B---------------------------------|------------------------------|
a------------------7--------------|------------------------------|
s--------------5h7----------------|------------------------------|
s--5------------------------------|-6---------------8------------|


______________________________
<<<<<<<<<<<--"Solo"-->>>>>>>>>>>
~~~~~~~~~~~~~~~~~~~~~~~~~~~~~~

Rhythm and bass play as verse.


pre-bend & release PLAY ALL THIS w/ ECHO.
G--------|------------------------------|-----------------------------|----
u--------|------------------------------|-----------------------------|----
i-(14)--r|-12--------12p10--------------|-----------------------------|----
t--------|-----------------12==========-|==================-12-12-12--|-12==
a--------|------------------------------|-----------------------------|----
r--------|------------------------------|-----------------------------|----
| | | | | | | | |


_________________________________
<<<<<<<<<<<--Interlude-->>>>>>>>>>>
~~~~~~~~~~~~~~~~~~~~~~~~~~~~~~~~~
Rhythm plays verse chords, bass plays root notes.


_____________________________
<<<<<<<<<<<--Extro-->>>>>>>>>>>
~~~~~~~~~~~~~~~~~~~~~~~~~~~~~

Similar to bridge:

G--5-----------------------5------|-6---------------8------------|--5---
u--5-----------------------5------|-6---------------8------------|--6---
i--6-----------------------6------|-7---------------9------------|--7---
t--7-----------------------7------|-8--------------10------------|--7---
a--7-----------------------7------|-8--------------10------------|--5---
r--5-----------------------5------|-6---------------8------------|--5---
| | | | | | | | |
B---------------------------------|-----------------5-------5--5-|------
a------------------7--------------|-8-------8----------5---------|------
s--------------5h7----------------|----8-------8----------3------|--5---
s--5------------------------------|-------6-------6--------------|------
\ 3 / \ 3 / \ 3 /
Triplets..........

ProTabs promo.jpg

Onbeperkt en gratis toegang tot alle 25.000
Tabs & Chords en direct meespelen met

Artiest Liedje

...

Gitaarakkoorden live - Brothers unawar

Dankzij de bladmuziek op deze pagina wordt het een stuk makkelijker om met de gitaar mee te spelen met Brothers unawar van live De ProTabs van Gitaartabs worden door onze professionele gitaardocenten samengesteld. De tabs en chords zijn door leden zelf geplaatst. Deze undefined van live met Brothers unawar is voor je geschreven door gitaartabs

Tabs & Chords van live - Brothers unawar

Bij de ProTabs delen we niet alleen de tablatuur maar ook de speelwijze van Brothers unawar Met een beetje gitaar ervaring moet je dit gitaarliedje zeker kunnen spelen, maar als het niet lukt zijn we er altijd om je te helpen. Door een gratis account aan te maken krijg je niet alleen toegang tot deze tab ,akkoorden & tabs van Brothers unawar maar kun je ook onbeperkt meespelen met een van de meer dan 25.000 andere tabs & chords in onze database.

Plaats opmerking

Verstuur

Beoordeel deze song

Rate UsDon’t love itNot greatGoodGreatLove itRate Us

Bedankt voor je beoordeling!