Devil is a loser

Gitaarliedjes, tabs & akkoorden (chords) Devil is a loser - lordi

Songtype: Tab

arrow&v

Markeer als favoriet

Favoriet

Gemarkeerd als favoriet

Capo:

0

lordi

lordi

Song
Album
Categorie

Devil is a loser

Downloads
2395
Niveau
2
Geplaatst door
!>resh<!
ProTabs-promo.jpg

Lordi Devil is A Loser

Drop D D-A-D-G-B-A-E


Intro

E|-----------------|
B|-----------------| 3x
G|-----------------|
D|-1-1--4-6-6b--6--|
A|-1-1--4-6-6b--6--|
D|-1-1--4-6-6b--6--|

Part 2 | A.H.|
E|---------------|
B|---------------| 1x
G|---------------|
D|-1-1--4--5-5-5-|
A|-1-1--4--5-5-5-|
D|-1-1--4--------|


You wanted power and you begged for fame
E|-------------------------------------------------------------------|
B|-------------------------------------------------------------------|
G|-5-------------------------5---5-5-------------------------5--5-3--|
D|-5-------------------------5---5-5-------------------------5--5-3--|
A|-3-3-3-3-3-3-3-3-3-3-3-3-3-3-3-3-3-3-3-3-3-3-3-3-3-3-3-3-3-3--3-1--|
D|-------------------------------------------------------------------|

E|-------------------------------------------------------------|
B|-------------------------------------------------------------|
G|---------3--3--------------------------------5----------3--3-|
D|---------3--3-5---------5--5-6-----6-5-----5-5----------3--3-|
A|-1-1-1-1-1--1-5---------5--5-6-----6-5-----5-3-3-3-3-3--1--1-|
D|--------------5-5-5-5-5-5--5-6-6-6-6-5-5-5-5-----------------|


E|-----------------------------------------------------------------|
B|-----------------------------------------------------------------|
G|-5-------------------------5--5-5-------------------------5--5-3-|
D|-5-------------------------5--5-5-------------------------5--5-3-|
A|-3-3-3-3-3-3-3-3-3-3-3-3-3-3--3-3-3-3-3-3-3-3-3-3-3-3-3-3-3--3-1-|
D|-----------------------------------------------------------------|

E|-------------------------------------------------------------|
B|-------------------------------------------------------------|
G|---------3--3--------------------------------5---------------|
D|---------3--3-5---------5--5-6-----6-5-----5-5---------------|
A|-1-1-1-1-1--1-5---------5--5-6-----6-5-----5-3-3-3-3-3-3-3-3-|
D|--------------5-5-5-5-5-5--5-6-6-6-6-5-5-5-5-----------------|


E|---------------------------------------------------------------|
B|---------------------------------------------------------------|
G|-----8---8-8--3-3-------------------6---6-6--------------------|
D|-----8---8-8--3-3-------------------6---6-6--6-6---------------|
A|-6-6-6-6-6-6--1-1-1-1-1-1-1-1-1-4-4-4-4-4-4--6-6---------------|
D|---------------------------------------------6-6-6-6-6-6-6-6-1-|

E|---------------------------------------------|
B|---------------------------------------------|
G|---------------------------------8-8--7-7----|
D|-----9-----9-----4------------4--8-8--7-7--5-|
A|-----9-----9-----4------------4--6-6--5-5--5-|
D|-9-9-9-9-9-9-9-9-4--------4-4-4------------5-|

Chorus | P.M |
E|------------------------------------------------------------|
B|------------------------------------------------------------|
G|-5-5---------3-3--5-5--3-------------------3-3-3-3----------|
D|-5-5---6-6---3-3--5-5--3---6-6-6-6-1-1-1-1-3-3-3-3---4--5---|
A|-3-3---6-6---1-1--3-3--1---6-6-6-6-1-1-1-1-1-1-1-1---6--3---|
D|-------6-6-----------------6-6-6-6-1-1-1-1------------------|

| P.M. |
E|--------------------------------------------------|
B|--------------------------------------------------|
G|-5-5---------3-3--5-5--3-3-------------------3--3-|
D|-5-5---6-6---3-3--5-5--3-3--6-6-6-6-1-1-1-1--3--3-|
A|-3-3---6-6---1-1--3-3--1-1--6-6-6-6-1-1-1-1--1--1-|
D|-------6-6------------------6-6-6-6-1-1-1-1-------|




E|----------------------------------------------------------------------|
B|----------------------------------------------------------------------|
G|----------------------------------------------------------------------|
D|-1-1-1--------6b--6--1--1------6b--6--1--1------6b--6--1--1-----3-3-3-|
A|-1-1-1--------6b--6--1--1------6b--6--1--1------6b--6--1--1-----3-3-3-|
D|-1-1-1--------6b--6--1--1------6b--6--1--1------6b--6--1--1-----------|



E|--------------------------------------------------------------------------------|
B|--------------------------------------------------------------------------------|
G|----------------------------------------------------------------------5-------3-|
D|-1-1--4-6-6b--6----1-1--4-6b--6----1-1--4-6b--6-----1-1--4--5-5-5-----5---6---3-|
A|-1-1--4-6-6b--6----1-1--4-6b--6----1-1--4-6b--6-----1-1--4--5-5-5-----3---6---1-|
D|-1-1--4-6-6b--6----1-1--4-6b--6----1-1--4-6b--6-----1-1--4----------------6-----|



Solo
E|---------------------------------------------------------------|
B|---------------------------------------------------------------|
G|---------------------------------------------------------------|
D|--0--0--3-0---3--------2---3--2--0--0--3-0---3--------2---3--2-|
A|------------1---1-3--3---3-----------------1---1-3--3---3------|
D|---------------------------------------------------------------|

E|---------------------------------------------------------------|
B|---------------------------------------------------------------|
G|---------------------------------------------------8-8--7-7----|
D|--1-1--4-1---4--------3---4--3--1--1--4-1---4------8-8--7-7--5-|
A|-----------2---2-4--4---4-----------------2---2-2--6-6--5-5--5-|
D|-------------------------------------------------------------5-|


Chorus | P.M |
E|------------------------------------------------------------|
B|------------------------------------------------------------|
G|-5-5---------3-3--5-5--3-------------------3-3-3-3----------|
D|-5-5---6-6---3-3--5-5--3---6-6-6-6-1-1-1-1-3-3-3-3---4--5---|
A|-3-3---6-6---1-1--3-3--1---6-6-6-6-1-1-1-1-1-1-1-1---6--3---|
D|-------6-6-----------------6-6-6-6-1-1-1-1------------------|

| P.M. |
E|--------------------------------------------------|
B|--------------------------------------------------|
G|-5-5---------3-3--5-5--3-3-------------------3--3-|
D|-5-5---6-6---3-3--5-5--3-3--6-6-6-6-1-1-1-1--3--3-|
A|-3-3---6-6---1-1--3-3--1-1--6-6-6-6-1-1-1-1--1--1-|
D|-------6-6------------------6-6-6-6-1-1-1-1-------|


|-----------------------------------------------------------------------------------------|
|-----------------------------------------------------------------------------------------|
|---------------------3--3-------------------------3--3---5-------------------------3--3--|
|--6-6-6-6-1-1-1-1----3--3------6-6-6-6-1-1-1-1----3--3---5------6-6-6-6-1-1-1-1----3--3--|
|--6-6-6-6-1-1-1-1----1--1------6-6-6-6-1-1-1-1----1--1---2------6-6-6-6-1-1-1-1----1--1--|
|--6-6-6-6-1-1-1-1--------------6-6-6-6-1-1-1-1------------------6-6-6-6-1-1-1-1----------|


de hele tekst hier onder!
______________________________________________________________________________________________


You wanted power and you begged for fame
You wanted everything the easy way
You wanted gain without pain
Now your bill is in the mail
You got stronger but your mind got weak
You made a promise that you couldn't keep
You had it all - You lost more
It's all there in the fee

Via hell incorporated (regeneration)
1st you love it then you hate it (you're such a saint)
And now you're never gonna make it (bad situation)
Get on get on down
there's hell to pay

Cause the devil is a loser and he's my bitch
For better or for worse and you don't care which
Cause the devil is a loser and he's my bitch
Runnin' into trouble you skitch
He's my bitch

You wanted riches and a license to kill
You got poverty, then you got ill
You got poor and you lost your will
All your dreams unfulfilled
I get my kicks when you blow your fuse
No-one got killed but that's no excuse
Hands up, I let you know when it's done
I've got the only gun

Via hell incorporated (regeneration)
1st you love it then you hate it (you're such a saint)
And now you're never gonna make it (bad situation)
Get on get on down
there's hell to pay

Cause the devil is a loser and he's my bitch
For better or for worse and you don't care which
Cause the devil is a loser and he's my bitch
Runnin' into trouble you skitch

And there were no refunds (devil is a loser)
Just failing guarantees (devil is a loser)
"Confess your sins, son" (devil is a loser)
Said the preacher on TV (devil is a loser)

You got yourself some greasepaint
Set of white and black
All you got was laughter and
Gene Simmons on your back

Cause the devil is a loser and he's my bitch
For better or for worse and you don't care which
Cause the devil is a loser and he's my bitch
Runnin' into trouble you skitch
He's my bitch (the devil is a loser and he's my bitch]
For better or for worse and you don't care which
Cause the devil is a loser and he's my bitch
Runnin' into trouble you skitch
Yeah
Runnin' into trouble you skitch
Whooow
Runnin' into trouble you skitch

ProTabs promo.jpg

Onbeperkt en gratis toegang tot alle 25.000
Tabs & Chords en direct meespelen met

Artiest Liedje

...

Gitaarakkoorden lordi - Devil is a loser

Dankzij de bladmuziek op deze pagina wordt het een stuk makkelijker om met de gitaar mee te spelen met Devil is a loser van lordi De ProTabs van Gitaartabs worden door onze professionele gitaardocenten samengesteld. De tabs en chords zijn door leden zelf geplaatst. Deze undefined van lordi met Devil is a loser is voor je geschreven door !>resh<!

Tabs & Chords van lordi - Devil is a loser

Bij de ProTabs delen we niet alleen de tablatuur maar ook de speelwijze van Devil is a loser Met een beetje gitaar ervaring moet je dit gitaarliedje zeker kunnen spelen, maar als het niet lukt zijn we er altijd om je te helpen. Door een gratis account aan te maken krijg je niet alleen toegang tot deze tab ,akkoorden & tabs van Devil is a loser maar kun je ook onbeperkt meespelen met een van de meer dan 25.000 andere tabs & chords in onze database.

Plaats opmerking

Beoordeel deze song

Rate UsDon’t love itNot greatGoodGreatLove itRate Us

Bedankt voor je beoordeling!