Hardrock hallelujah

Gitaarliedjes, tabs & akkoorden (chords) Hardrock hallelujah - lordi

Songtype: Tab

arrow&v

Markeer als favoriet

Favoriet

Gemarkeerd als favoriet

Capo:

0

lordi

lordi

Song
Album
Categorie

Hardrock hallelujah

Downloads
1731
Niveau
1

Geplaatst door
!>resh<!
ProTabs-promo.jpg

Tuning Drop D D-A-D-G-B-E

Lordi Hardrock Hallelujah

Intro

E|--------------------------------------------------|
B|--------------------------------------------------| 1x
G|--------------------------------------------------|
D|-5-5--8-8--10-10--1--3-8--5-5--8-8--1-1--11--10-8-|
A|-5-5--8-8--10-10--1--3-8--5-5--8-8--1-1--11--10-8-|
D|-5-5--8-8--10-10--1--3-8--5-5--8-8--1-1--11--10-8-|


Bridge 1
|2nd-Part
E|-----------------------------------------------------------------------------|
B|-----------------------------------------------------------------------------|
G|-----------------------------------------------------------------------------|
D|-8------8-7------7-8-7----10---7----8-8------8-7------7-8-7---1--3---7-8-----|
A|-8-x-x--8-7-x-x--7-8-7-x--10-x-7-x--8-8-x-x--8-7-x-x--7-8-7---1--3---7-8-x-x-|
D|-----------------------------------------------------------------------------|

E|--------------------------------------------------------------|
B|--------------------------------------------------------------|
G|--------------------------------------------------------------|
D|-8-7------7-8-7---10----7----8-8-----8-7------7-8-7--10--8--5-|
A|-8-7-x-x--7-8-7-x-10-x--7-x--8-8-x-x-8-7-x-x--7-8-7--10--8--5-|
D|-----------------------------------------------------10--8--5-|


E|--------------------------------------------------------------------|
B|--------------------------------------------------------------------|
G|--------------------------------------------------------------------|
D|5----5-5----3-3----10-10---1--3--5-5----5-5----3-3----10-10---1--3--|
A|5----5-5----3-3----10-10---1--3--5-5----5-5----3-3----10-10---1--3--|
D|5----5-5----3-3----10-10---1--3--5-5----5-5----3-3----10-10---1--3--|

Bridge 2


E|--------------------------------------------------------------------|
B|--------------------------------------------------------------------|
G|--------------------------------------------------------------------|
D|-1-1--1------------5-5------------3-3--------------1-1--------------|
A|-1-1-----1--0-1----5-5--5--1------3-3--0--0-1-3----1-1--1--1-0------|
D|-1-1---------------5-5--------7---3-3-----------3--1-1----------5-3-|
|P.M| |P.M| A.H |P.M| |P.M|


E|--------------------------------------------------------|
B|--------------------------------------------------------|
G|--------------------------------------------------------|
D|-1-1--1----------5-5-----------3-3-------------0--(1)-0-|
A|-1-1-----1--0-1--5-5--5--1-----3-3--0--0-1-3---0--(1)-0-|
D|-1-1-------------5-5-------7---3-3-------- --3-0--(1)-0-|
|P.M| |P.M| A.H |P.M|

E|---------------------------------------------|
B|---------------------------------------------| 2x
G|---------------------------------------------|
D|-5-5-5--3-3-3--1-1-1/8--8-8-8--10--6--1--3---|
A|-5-5-5--3-3-3--1-1-1/8--8-8-8--10--6--1--3---|
D|-5-5-5--3-3-3--1-1-1/8--8-8-8--10--6--1--3---|
|P.M| |P.M| |P.M| |P.M|

Bridge 1
|2nd-Part
E|--------------------------------------------------------------------------|
B|--------------------------------------------------------------------------|
G|--------------------------------------------------------------------------|
D|-8------8-7------7-8-7----10---7----8-8-----8-7------7-8-7--1--3--7-8-----|
A|-8-x-x--8-7-x-x--7-8-7-x--10-x-7-x--8-8-x-x-8-7-x-x--7-8-7--1--3--7-8-x-x-|
D|--------------------------------------------------------------------------|

E|--------------------------------------------------------------|
B|--------------------------------------------------------------|
G|--------------------------------------------------------------|
D|-8-7------7-8-7---10----7----8-8-----8-7------7-8-7--10--8--5-|
A|-8-7-x-x--7-8-7-x-10-x--7-x--8-8-x-x-8-7-x-x--7-8-7--10--8--5-|
D|-----------------------------------------------------10--8--5-|

E|----------------------------------------------------------------------------|
B|----------------------------------------------------------------------------|
G|----------------------------------------------------------------------------|
D|5----5-5--xxx-8--3-3----10-10---1--3--5-5----5-5-xxx-8--3-3----10-10--1--3--|
A|5----5-5--xxx-8--3-3----10-10---1--3--5-5----5-5-xxx-8--3-3----10-10--1--3--|
D|5----5-5--xxx----3-3----10-10---1--3--5-5----5-5-xxx----3-3----10-10--1--3--|

Bridge 2

E|-----------------------------------------------------------------|
B|-----------------------------------------------------------------|
G|-----------------------------------------------------------------|
D|-1-1--1-----------5-5-----------3-3-------------1-1--------------|
A|-1-1-----1--0-1---5-5--5--1-----3-3--0--0-1-3---1-1--1--1-0------|
D|-1-1--------------5-5-------7---3-3-----------3-1-1----------5-3-|
|P.M| |P.M| A.H |P.M| |P.M|


E|-------------------------------------------------------|
B|-------------------------------------------------------|
G|-------------------------------------------------------|
D|-1-1--1----------5-5-----------3-3------------0--(1)-0-|
A|-1-1-----1--0-1--5-5--5--1-----3-3--0--0-1-3--0--(1)-0-|
D|-1-1-------------5-5--------7--3-3---------3--0--(1)-0-|
|P.M| |P.M| A.H |P.M|

E|---------------------------------------------| E|---|
B|---------------------------------------------| 2x B|---|
G|---------------------------------------------| G|---|
D|-5-5-5--3-3-3--1-1-1/8--8-8-8--10--6--1--3---| D|-0-|
A|-5-5-5--3-3-3--1-1-1/8--8-8-8--10--6--1--3---| bij 2e keer A|-0-|op het laatst
D|-5-5-5--3-3-3--1-1-1/8--8-8-8--10--6--1--3---| E|-0-|
|P.M| |P.M| |P.M| |P.M|


E|----------------------------------------------------------------------|
B|----------------------------------------------------------------------|
G|----------------------------------------------------------------------|
D|----------------------------------------------------------------------|
A|----------------------------------------------------------------------|
D|-0-h2-5-0-h2-0-h2--0-h2-5-0-h2-0-h2-5--0-h2-5-0-h2-0-h2--0-h2-5-0-h2--|

E|----------------------------------------------------------------------|
B|----------------------------------------------------------------------|
G|----------------------------------------------------------------------|
D|---------------------------------------------------------10--8--5-----|
A|---------------------------------------------------------10--8--5-----|
D|-3-h5-8-3-h5-3-h5--3-h5-8-3-h5-3-h5-8--3-h5-8-3-h5-3-h5--10--8--5-----|

E|-----------------------------------------------------------------------|
B|-----------------------------------------------------------------------|
G|-7---------------7---------------7-----7-----10----7----5-7---10-12-12-|
D|-7---------------7---------------7-----7-----10----7----5-7---10-12-12-|
A|-5---------------5---------------5-----5-----8-----5----3-5---8--10-10-|
D|-0-x-x-x-x-x-x-x-0-x-x-x-x-x-x-x-0-x-x-0-x-x---x-x--x-0----------------|

E|-------------------------------------------------------|
B|-------------------------------------------------------|
G|-------------------------------------------------------|
D|-5-5--------------1-3-8--5-5--------------11-10-8--5-5-|
A|-5-5--------------1-3-8--5-5--------------11-10-8--5-5-|
D|-5-5--------------1-3-8--5-5--------------11-10-8--5-5-|

E|---------------------------------|
B|---------------------------------|
G|---------------------------------|
D|--------------1-3-8--5-5-------0-|
A|--------------1-3-8--5-5-------0-|
D|--------------1-3-8--5-5-------0-|

E|---------------------------------------------|
B|---------------------------------------------| 2x
G|---------------------------------------------|
D|-5-5-5--3-3-3--1-1-1/8--8-8-8--10--6--1--3---|
A|-5-5-5--3-3-3--1-1-1/8--8-8-8--10--6--1--3---|
D|-5-5-5--3-3-3--1-1-1/8--8-8-8--10--6--1--3---|
|P.M| |P.M| |P.M| |P.M|
End

E|------------------|
B|------------------|
G|------------------|
D|-3-5h-8-3-5h--3-5-|
A|-3-5h-8-3-5h--3-5-|
D|-3-5h-8-3-5h--3-5-|


hier is de link nu van het filmpje op youtube deze is ongeveer het
zelfde als de tab want bij song festival word het nummer ook iets
anders gespeeld http://youtu.be/qDoixzkbxZE

ProTabs promo.jpg

Onbeperkt en gratis toegang tot alle 25.000
Tabs & Chords en direct meespelen met

Artiest Liedje

...

Gitaarakkoorden lordi - Hardrock hallelujah

Dankzij de bladmuziek op deze pagina wordt het een stuk makkelijker om met de gitaar mee te spelen met Hardrock hallelujah van lordi De ProTabs van Gitaartabs worden door onze professionele gitaardocenten samengesteld. De tabs en chords zijn door leden zelf geplaatst. Deze undefined van lordi met Hardrock hallelujah is voor je geschreven door !>resh<!

Tabs & Chords van lordi - Hardrock hallelujah

Bij de ProTabs delen we niet alleen de tablatuur maar ook de speelwijze van Hardrock hallelujah Met een beetje gitaar ervaring moet je dit gitaarliedje zeker kunnen spelen, maar als het niet lukt zijn we er altijd om je te helpen. Door een gratis account aan te maken krijg je niet alleen toegang tot deze tab ,akkoorden & tabs van Hardrock hallelujah maar kun je ook onbeperkt meespelen met een van de meer dan 25.000 andere tabs & chords in onze database.

Plaats opmerking

Verstuur

Beoordeel deze song

Rate UsDon’t love itNot greatGoodGreatLove itRate Us

Bedankt voor je beoordeling!