Rock the hell outta you

Gitaarliedjes, tabs & akkoorden (chords) rock the hell outta you - lordi

Songtype: Tab

arrow&v

Markeer als favoriet

Favoriet

Gemarkeerd als favoriet

Capo:

0

lordi

lordi

Song
Album
Categorie

rock the hell outta you

Downloads
63
Niveau
1

Geplaatst door
!>resh<!
ProTabs-promo.jpg

Lordi Rock the hell outta You
Tunning: D-A-D-G-B-e

|------------------------------|
|o-----------------------------|
|------------------------------|
|--4-4-------0-(0)---0h2h3p2p0-|
|o-2-2-------------2-----------|
|------0h1h2-------------------|


|-----------------------------|-----------------------------|
|-----------------------------|-----------------------------|
|-----------------------------|-----------------------------|
|-4-4-------0-(0)---0h2h3p2p0-|-4-4-------0-(0)---0h2h3p2p0-|
|-2-2-------------2-----------|-2-2-------------2-----------|
|-----0h1h2-------------------|-----0h1h2-------------------|


Pre-Verse Verse
|---------------||---------------|-----------------||------------------|
|--------------o||---------------|-----------------||------------------|
|---------------||---------------|-----------------||------------------|
|-2----3----4---||-9-9----9-9----|-9-9----9-9---8--||-6-6----6-6---4---|
|-2----3----4--o||-9-9----9-9----|-9-9----9-9---8--||-6-6----6-6---4---|
|-2----3----4---||-9-9----9-9----|-9-9----9-9---8--||-6-6----6-6---4---|


|-------------|-----------------|---------------|
|-------------|-----------------|---------------|
|-------------|-----------------|------------6--|
|-2-2---------|-6-6----6-6---4--|-2-2--------6--|
|-2-2---------|-6-6----6-6---4--|-2-2--------4--|
|-2-2---------|-6-6----6-6---4--|-2-2-----------|


|-----------------|------------------||
|-----------------|------------------||
|-----------------|----------6----6--||
|-6-6----6-6---4--|-2-2------6----6--||
|-6-6----6-6---4--|-2-2------4----4--||
|-6-6----6-6---4--|-2-2--------------||


Pre-Chorus
|-------------------------|-------------------------|
|-------------------------|-------------------------|
|-------------------------|-------------------------|
|-6-----6-----2-----2-----|-4-----4-----2-------4---|
|-6-----6-----2-----2-----|-4-----4-----2-------4---|
|-6-6-6-6-6-6-2-2-2-2-2-2-|-4-4-4-4-4-4-2-2-2-2-4---|


Chorus
|-------------------------|----------||------------------|----------------|
|-------------------------|----------||o-----------------|----------------|
|-------------------------|----------||------------------|----------------|
|-6-----6-----2-----2-----|-4--------||--9-9-7-9-(9)\----|-5-5-4-5-(5)----|
|-6-----6-----2-----2-----|-4--------||o-9-9-7-9-(9)\----|-5-5-4-5-(5)----|
|-6-6-6-6-6-6-2-2-2-2-2-2-|-4--------||--9-9-7-9-(9)\----|-5-5-4-5-(5)----|


Pre-Verse
|----------------|--------------||-----------------------------|--------------||
|----------------|-------------o||-----------------------------|--------------||
|----------------|-7--7--7--7---||-----------------------------|--------------||
|-7-7-5-7-(7)----|-7--7--7--7---||-4-4-------0-(0)---0h2h3p2p0-|-2----3----4--||
|-7-7-5-7-(7)----|-5--5--4--4--o||-2-2-------------2-----------|-2----3----4--||
|-7-7-5-5-(7)----|--------------||-----0h2h3-------------------|-2----3----4--||


Guitar Break
|--------------|----------------|-----------------|---------------|
|--------------|----------------|-----------------|---------------|
|-7---------7--|-(7)----7-9--9--|-7-9-9-7-9-9-9---|-7---------7---|
|-7----7----7--|-(7)-7--7-9--9--|-7-9-9-7-9-9-9---|-7----7----7---|
|-5----7----5--|-(5)-7--5-7--7--|-5-7-7-5-7-7-7---|-5----7----5---|
|------7-------|-----7----------|-----------------|------7--------|


|----------------|-----------------|--------------|----------|-----------------|
|----------------|-----------------|--------------|----------|-----------------|
|-(7)----7-9--9--|-7-9-9-7-9-9-9---|-7---------7--|-(7)------|-----------------|
|-(7)-7--7-9--9--|-7-9-9-7-9-9-9---|-7----7----7--|-(7)-7--8-|-9---------------|
|-(5)-7--5-7--7--|-5-7-7-5-7-7-7---|-5----7----5--|-(5)-7--8-|-9-9-9-9-9-9-9-9-|
|-----7----------|-----------------|------7-------|-----7--8-|-9-9-9-9-9-9-9-9-|


Bridge
|-----------------------||---------------------------------|
|-----------------------||---------------------------------|
|-----------------------||---------------------------------|
|---9---8---7---6---5---||---------------------------------|
|-----------------------||---------------------------------|
|-9---8---7---6---5---5-||-4-4-4-4-4-4-4-4-4-4-4-4-4-4-4-4-|


|---------------------------------|----------------------------------|
|---------------------------------|----------------------------------|
|---------------------------------|----------------------------------|
|---------------------------------|----------------------------------|
|-2-2-2-2-2-2-2-2-2-2-2-2-2-2-2-2-|----------------------------------|
|---------------------------------|-4-4-4-4-4-4-4-4-4-4-4-4-4-4-4-4--|


|---------------------------------|---------------------------------|
|---------------------------------|---------------------------------|
|---------------------------------|---------------------------------|
|---------------------------------|---------------------------------|
|---------------------------------|---------------------------------|
|-5-5-5-5-5-5-5-5-5-5-5-5-5-5-5-5-|-4-4-4-4-4-4-4-4-4-4-4-4-4-4-4-4-|


|------------------------------------|
|------------------------------------|
|------------------------------------|
|------------------------------------|
|-2-2-2-2-2-2-2-2-2-2-2-2-2-2-2-2----|
|------------------------------------|


Chorus
|----------|----------|-------------||------------------|
|----------|----------|-------------||o-----------------|
|----------|----------|-------------||------------------|
|-5--------|-7--------|-9-----------||--9-9-7-9-(9)\----|
|-5--------|-7--------|-9-----------||o-9-9-7-9-(9)\----|
|-5--------|-7--------|-9-----------||--9-9-7-9-(9)\----|


Outro
|----------------|----------------|--------------||--------------|------------|
|----------------|----------------|-------------o||--------------|------------|
|----------------|----------------|-7--7--7--7---||-7---------7--|-(7)--------|
|-5-5-4-5-(5)----|-7-7-5-7-(7)----|-7--7--7--7---||-7----7----7--|-(7)-7--8---|
|-5-5-4-5-(5)----|-7-7-5-7-(7)----|-5--5--4--4--o||-5----7----5--|-(5)-7--8---|
|-5-5-4-5-(5)----|-7-7-5-7-(7)----|--------------||------7-------|-----7--8---|


|-----------------------------|-----------------------------|
|-----------------------------|-----------------------------|
|-----------------------------|-----------------------------|
|-4-4-------0-(0)---0h2h3p2p0-|-4-4-------0-(0)---0h2h3p2p0-|
|-2-2-------------2-----------|-2-2-------------2-----------|
|-----0h2h3-------------------|-----0h2h3-------------------|


|------------------------------|
|------------------------------|
|------------------------------|
|-4-4-------0-(0)---0h2h3p2p0--|
|-2-2-------------2------------|
|-----0h2h3--------------------|


|--------------|-----------------------|
|--------------|-----------------------|
|--------------|-----------------------|
|-2----3----4--|-4-4-0h2h3p2p0-4-4\----|
|-2----3----4--|-2-2-----------2-2\----|
|-2----3----4--|-----------------------|

ProTabs promo.jpg

Onbeperkt en gratis toegang tot alle 25.000
Tabs & Chords en direct meespelen met

Artiest Liedje

...

Gitaarakkoorden lordi - rock the hell outta you

Dankzij de bladmuziek op deze pagina wordt het een stuk makkelijker om met de gitaar mee te spelen met rock the hell outta you van lordi De ProTabs van Gitaartabs worden door onze professionele gitaardocenten samengesteld. De tabs en chords zijn door leden zelf geplaatst. Deze undefined van lordi met rock the hell outta you is voor je geschreven door !>resh<!

Tabs & Chords van lordi - rock the hell outta you

Bij de ProTabs delen we niet alleen de tablatuur maar ook de speelwijze van rock the hell outta you Met een beetje gitaar ervaring moet je dit gitaarliedje zeker kunnen spelen, maar als het niet lukt zijn we er altijd om je te helpen. Door een gratis account aan te maken krijg je niet alleen toegang tot deze tab ,akkoorden & tabs van rock the hell outta you maar kun je ook onbeperkt meespelen met een van de meer dan 25.000 andere tabs & chords in onze database.

Plaats opmerking

Verstuur

Beoordeel deze song

Rate UsDon’t love itNot greatGoodGreatLove itRate Us

Bedankt voor je beoordeling!