Cancion del mariachi

Gitaarliedjes, tabs & akkoorden (chords) Cancion del mariachi - los lobos and antonio banderas

Songtype: Tab

arrow&v

Markeer als favoriet

Favoriet

Gemarkeerd als favoriet

Capo:

0

los lobos and antonio banderas

los lobos and antonio banderas

Song
Album
Categorie

Cancion del mariachi

Downloads
2116
Niveau
2
desperado the soundtrack

Geplaatst door
sollie
ProTabs-promo.jpg

Het is even wat werk geweest maar toch gelukt.
Voor de liefhebber hier is tiedan.
op het kladblok staat alles recht onder elkaar.
weet niet waarom hier niet.
maar het gaat net zo.
Staat nogal veel uitleg bij maar dat komt omdat hij geexporteerd is uit power tab editor
alle noten van de noten balk en uitleg prakt hij er dan bij.
vadaar dit uitgebreide stuk
veel plezier ermee,
groetjes Sollie



#----------------------------------PLEASE NOTE---------------------------------#
#This file is the author's own work and represents their interpretation of the #
#song. You may only use this file for private study, scholarship, or research. #
#------------------------------------------------------------------------------#

CANCION DEL MARIACHI
As recorded by Los Lobos with Antonio Banderas
(From the 1995 Album DESPERADO/THE SOUNDTRACK)




Words and Music by Cesar Rosas

Gtr I (E A D G B E) - 'Solo Guitar'
Gtr II (E A D G B E) - 'Acoustic Guitar'

Intro
Moderate Rhumba Feel Q=126
N.C. B7
4/4
Gtr I
|-3-| |-3-| |-3-| |-3-| |-3-| |-3-| |-3--| |-3-|
H Q E E E E E E E E E E E E E E E E E E E E E Q Q E
|---------------|-7-7---7-7----8-7---7-----|--8-7---7------5---------|
|-------------8-|---8---8-8---10-8---8-----|-10-8---8------7---------|
|-----------9---|----------------------9---|----------9\-----------8-|
|---------9-----|--------------------------|-------------------------|
|---------------|--------------------------|-------------------------|
|---------------|--------------------------|-------------------------|
|
| Gtr II
| |--3--|
| W W H Q Q Q
|---------------|--------------------------|-----------------7---7---|
|---------------|--------------------------|-----------------7---7---|
|---------------|--------------------------|-----------------8---8---|
|---------------|--------------------------|-----------------7---7---|
|---------------|--------------------------|-----------------9---9---|
|---------------|--------------------------|-----------------7---7---|


Em
|-3-| |-3-| |-3-| |-3-| |-3--| |-3-|
E E E E E E E E E E E E +E E E E E E +H
|-5-5---5-5---7-5---5-5-7-|-(7)-5-5---2-3-(3)-----------||
|-7-7---7-7---8-7---7-7-8-|-(8)-7-7---4-5-(5)-----------||
|-------------------------|-----------------------------||
|-------------------------|-----------------------------||
|-------------------------|-----------------------------||
|-------------------------|-----------------------------||
|
| |-3-| |-3-| |-3-| |-3-| |-3--| |-3-| |-3--| |-3-|
| E E E E E E E E E E E E E E E E E E E E E E E E
|-7-7-7-x-7-7-7-7-7-7-7-7-|--7--7-7-x-7-7--7--7-7-x-7-7-||
|-7-7-7-x-7-7-7-7-7-7-7-7-|--7--7-7-x-7-7--8--8-8-x-8-8-||
|-8-8-8-x-8-8-8-8-8-8-8-8-|--8--8-8-x-8-8--9--9-9-x-9-9-||
|-7-7-7-x-7-7-7-7-7-7-7-7-|--7--7-7-x-7-7--9--9-9-x-9-9-||
|-9-9-9-x-9-9-9-9-9-9-9-9-|--9--9-9-x-9-9--7--7-7-x-7-7-||
|-7-7-7-x-7-7-7-7-7-7-7-7-|--7--7-7-x-7-7---------------||


1st Verse
B7
|---3---|
W H Q Q Q
|-------------------------|-------------------------|
|-------------------------|---------------------7---|
|-------------------------|-----------------8-------|
|-------------------------|-------------9-----------|
|-------------------------|-------------------------|
|-------------------------|-------------------------|
|
| |-3-| |-3-| |-3-| |-3-| |-3-| |-3-| |-3-| |-3-|
| E E E E E E E E E E E E E E E E E E E E E E E E
|-7-7-7-x-7-7-7-7-7-x-7-7-|-7-7-7-x-7-7-7-7-7-x-7-7-|
|-8-8-8-x-8-8-8-8-8-x-8-8-|-8-8-8-x-8-8-7-7-7-x-7-7-|
|-9-9-9-x-9-9-9-9-9-x-9-9-|-9-9-9-x-9-9-8-8-8-x-8-8-|
|-9-9-9-x-9-9-9-9-9-x-9-9-|-9-9-9-x-9-9-7-7-7-x-7-7-|
|-7-7-7-x-7-7-7-7-7-x-7-7-|-7-7-7-x-7-7-9-9-9-x-9-9-|
|-------------------------|-------------7-7-7-x-7-7-|


Em
|-3-| |-3-|
W H E E E E E E
|-7-----------------------|---------------8-7--------|
|-------------------------|-------------------10-8-7-|
|-------------------------|--------------------------|
|-------------------------|--------------------------|
|-------------------------|--------------------------|
|-------------------------|--------------------------|
|
| |-3-| |-3-| |-3-| |-3-| |-3-| |-3-| |-3-| |-3-|
| E E E E E E E E E E E E E E E E E E E E E E E E
|-7-7-7-x-7-7-7-7-7-7-7-7-|-7-7-7-x-7-7-7-7-7--x-7-7-|
|-7-7-7-x-7-7-7-7-7-7-7-7-|-7-7-7-x-7-7-8-8-8--x-8-8-|
|-8-8-8-x-8-8-8-8-8-8-8-8-|-8-8-8-x-8-8-9-9-9--x-9-9-|
|-7-7-7-x-7-7-7-7-7-7-7-7-|-7-7-7-x-7-7-9-9-9--x-9-9-|
|-9-9-9-x-9-9-9-9-9-9-9-9-|-9-9-9-x-9-9-7-7-7--x-7-7-|
|-7-7-7-x-7-7-7-7-7-7-7-7-|-7-7-7-x-7-7--------------|


B7
|-3--| |-3-|
W H E E E Q E
|-------------------------|--------------------8---7-|
|-------------------------|---------------7-10-------|
|-9-----------------------|--------------------------|
|-------------------------|--------------------------|
|-------------------------|--------------------------|
|-------------------------|--------------------------|
|
| |-3-| |-3-| |-3-| |-3-| |-3-| |-3-| |-3--| |-3-|
| E E E E E E E E E E E E E E E E E E E E E E E E
|-7-7-7-x-7-7-7-7-7-x-7-7-|-7-7-7-x-7-7-7-7--7-x-7-7-|
|-8-8-8-x-8-8-8-8-8-x-8-8-|-8-8-8-x-8-8-7-7--7-x-7-7-|
|-9-9-9-x-9-9-9-9-9-x-9-9-|-9-9-9-x-9-9-8-8--8-x-8-8-|
|-9-9-9-x-9-9-9-9-9-x-9-9-|-9-9-9-x-9-9-7-7--7-x-7-7-|
|-7-7-7-x-7-7-7-7-7-x-7-7-|-7-7-7-x-7-7-9-9--9-x-9-9-|
|-------------------------|-------------7-7--7-x-7-7-|


Em
|--3--| |-3-| |--3--| |-3-|
+E E E Q E +H +E E E Q E H
|-(7)------8---7-(7)-----------|-(7)------8---7-------------||
|-----7-10---------------------|-----7-10-------------------||
|------------------------------|----------------9-----------||
|------------------------------|----------------------------||
|------------------------------|----------------------------||
|------------------------------|----------------------------||
|
| |--3--| |-3-| |-3--| |-3-| |--3--| |-3-| |-3-| |-3-|
| E E E E E E E E E E E E E E E E E E E E E E E E
|--7--7--7-x-7-7--7--7-7-7-7-7-|--7--7--7-x-7-7-7-7-7-x-7-7-||
|--7--7--7-x-7-7--7--7-7-7-7-7-|--7--7--7-x-7-7-8-8-8-x-8-8-||
|--8--8--8-x-8-8--8--8-8-8-8-8-|--8--8--8-x-8-8-9-9-9-x-9-9-||
|--7--7--7-x-7-7--7--7-7-7-7-7-|--7--7--7-x-7-7-9-9-9-x-9-9-||
|--9--9--9-x-9-9--9--9-9-9-9-9-|--9--9--9-x-9-9-7-7-7-x-7-7-||
|--7--7--7-x-7-7--7--7-7-7-7-7-|--7--7--7-x-7-7-------------||


Chorus
Am Em B7 Em
|-3-| |-3-| |-3-| |-3-| |-3-| |-3-| |-3-| |-3-|
E E E E E E E E E E E E E E E E E E E E E E E E
|-8-5-0-8-5-8-7---7-7---7-|-5---5-5---5-7-----------|
|---------------8-----8---|---7-----8-----8-5-8-5-8-|
|-------------------------|-------------------------|
|-------------------------|-------------------------|
|-------------------------|-------------------------|
|-------------------------|-------------------------|
|
| |-3-| |-3-| |-3-| |-3-| |-3-| |-3-| |-3-| |-3-|
| E E E E E E E E E E E E E E E E E E E E E E E E
|-5-5-5-x-5-5-7-7-7-x-7-7-|-7-7-7-x-7-7-7-7-7-x-7-7-|
|-5-5-5-x-5-5-8-8-8-x-8-8-|-7-7-7-x-7-7-8-8-8-x-8-8-|
|-5-5-5-x-5-5-9-9-9-x-9-9-|-8-8-8-x-8-8-9-9-9-x-9-9-|
|-7-7-7-x-7-7-9-9-9-x-9-9-|-7-7-7-x-7-7-9-9-9-x-9-9-|
|-7-7-7-x-7-7-7-7-7-x-7-7-|-9-9-9-x-9-9-7-7-7-x-7-7-|
|-5-5-5-x-5-5-------------|-7-7-7-x-7-7-------------|


Am Em B7 Em
|-3-| |-3-| |-3-| |-3-| |-3-| |-3-| |-3-|
E E E E E E E E E E E E E E E E E E Q E E E
|-8-5-0-8-5-8-7---7-7-5-7-|-5-----5-----------------||
|---------------8---------|---7-8---8-7-5---------8-||
|-------------------------|---------------------9---||
|-------------------------|-------------------------||
|-------------------------|-------------------------||
|-------------------------|-------------------------||
|
| |-3-| |-3-| |-3-| |-3-| |-3-| |-3-| |-3-| |-3-|
| E E E E E E E E E E E E E E E E E E E E E E E E
|-5-5-5-x-5-5-7-7-7-x-7-7-|-7-7-7-x-7-7-7-7-7-x-7-7-||
|-5-5-5-x-5-5-8-8-8-x-8-8-|-7-7-7-x-7-7-8-8-8-x-8-8-||
|-5-5-5-x-5-5-9-9-9-x-9-9-|-8-8-8-x-8-8-9-9-9-x-9-9-||
|-7-7-7-x-7-7-9-9-9-x-9-9-|-7-7-7-x-7-7-9-9-9-x-9-9-||
|-7-7-7-x-7-7-7-7-7-x-7-7-|-9-9-9-x-9-9-7-7-7-x-7-7-||
|-5-5-5-x-5-5-------------|-7-7-7-x-7-7-------------||


Interlude
Em B7
|-3-| |-3-| |-3-| |-3-| |-3-| |-3--| |-3-|
E E E E E E E E E E E E E E E E E E Q E E E
|-7-7---7-7----8-7---7-----|--8-7---7------5-----------|
|-8-8---8-8---10-8---8-----|-10-8---8------7---------7-|
|----------------------9---|----------9\-----------8---|
|--------------------------|---------------------------|
|--------------------------|---------------------------|
|--------------------------|---------------------------|
|
| |-3-| |-3-| |-3-| |-3-| |-3-| |-3--| |-3-| |-3-|
| E E E E E E E E E E E E E E E E E E E E E E E E
|-7-7-7-x-7-7--7-7-7-x-7-7-|--7-7-7-x-7--7-7-7-7-x-7-7-|
|-8-8-8-x-8-8--8-8-8-x-8-8-|--8-8-8-x-8--8-7-7-7-x-7-7-|
|-9-9-9-x-9-9--9-9-9-x-9-9-|--9-9-9-x-9--9-8-8-8-x-8-8-|
|-9-9-9-x-9-9--9-9-9-x-9-9-|--9-9-9-x-9--9-7-7-7-x-7-7-|
|-7-7-7-x-7-7--7-7-7-x-7-7-|--7-7-7-x-7--7-9-9-9-x-9-9-|
|--------------------------|---------------7-7-7-x-7-7-|


Em
|-3-| |--3---| |-3--| |-3-| |-3-| |-3-|
E E E E E S S +E E E E E E E E E E E Q E E E
|-5-5---5-5-5h=7--(7)-5-5---5---|-7-5---5\---2---3-----0-----||
|-7-7---7-7-7-(7)-(7)-7-7---7---|-8-7---7\---4---5-------0---||
|-------------------------------|--------------------------0-||
|-------------------------------|----------------------------||
|-------------------------------|----------------------------||
|-------------------------------|----------------------------||
|
| |-3-| |-3-| |-3--| |-3-| |-3-| |--3---| |-3-| |-3-|
| E E E E E E E E E E E E E E E E E E E E E E E E
|-7-7-7-x-7-7------7--7-7-7-7-7-|-7-7-7-x--7---7-7-7-7-x-7-7-||
|-7-7-7-x-7-7------7--7-7-7-7-7-|-7-7-7-x--7---7-8-8-8-x-8-8-||
|-8-8-8-x-8-8------8--8-8-8-8-8-|-8-8-8-x--8---8-9-9-9-x-9-9-||
|-7-7-7-x-7-7------7--7-7-7-7-7-|-7-7-7-x--7---7-9-9-9-x-9-9-||
|-9-9-9-x-9-9------9--9-9-9-9-9-|-9-9-9-x--9---9-7-7-7-x-7-7-||
|-7-7-7-x-7-7------7--7-7-7-7-7-|-7-7-7-x--7---7-------------||


2nd Verse
B7
W H q q
|-------------------------|-------------7-----7-----|
|-------------------------|-------------7-----7-----|
|-------------------------|-------------8-----8-----|
|-2-----------------------|-------------------------|
|-------------------------|-------------------------|
|-------------------------|-------------------------|
|
| |-3-| |-3-| |-3-| |-3-| |-3-| |-3-| |-3-| |-3-|
| E E E E E E E E E E E E E E E E E E E E E E E E
|-7-7-7-x-7-7-7-7-7-x-7-7-|-7-7-7-x-7-7-7-7-7-x-7-7-|
|-8-8-8-x-8-8-8-8-8-x-8-8-|-8-8-8-x-8-8-7-7-7-x-7-7-|
|-9-9-9-x-9-9-9-9-9-x-9-9-|-9-9-9-x-9-9-8-8-8-x-8-8-|
|-9-9-9-x-9-9-9-9-9-x-9-9-|-9-9-9-x-9-9-7-7-7-x-7-7-|
|-7-7-7-x-7-7-7-7-7-x-7-7-|-7-7-7-x-7-7-9-9-9-x-9-9-|
|-------------------------|-------------7-7-7-x-7-7-|


Em
|-3-| |-3--|
q q q q q q E E E +E E E
|-7-----7\-----7-----7\-----|-7-----7-----7-------------|
|-7-----7\-----7-----7\-----|-7-----7-------8---------8-|
|-8-----8\-----8-----8\-----|-8-----8---------9-(9)-----|
|---------------------------|-----------------------9---|
|---------------------------|---------------------------|
|---------------------------|---------------------------|
|
| |-3-| |-3--| |-3-| |-3--| |-3-| |-3-| |-3-| |-3--|
| E E E E E E E E E E E E E E E E E E E E E E E E
|-7-7-7-x--7-7-7-7-7-7--7-7-|-7-7-7-x-7-7-7-7-7--x--7-7-|
|-7-7-7-x--7-7-7-7-7-7--7-7-|-7-7-7-x-7-7-8-8-8--x--8-8-|
|-8-8-8-x--8-8-8-8-8-8--8-8-|-8-8-8-x-8-8-9-9-9--x--9-9-|
|-7-7-7-x--7-7-7-7-7-7--7-7-|-7-7-7-x-7-7-9-9-9--x--9-9-|
|-9-9-9-x--9-9-9-9-9-9--9-9-|-9-9-9-x-9-9-7-7-7--x--7-7-|
|-7-7-7-x--7-7-7-7-7-7--7-7-|-7-7-7-x-7-7---------------|


B7
|-3-| |-3-| |-3-| |-3-| |3|
Q Q E E E E E E E E E E E E E Q +Q
|---------------8-7-------|-7-----7-------7---(7)-----|
|-------------------8---8-|---8-----8-----------------|
|---------------------9---|-----9-----9-8-------------|
|-9-----------------------|---------------------------|
|-------------------------|---------------------------|
|-------------------------|---------------------------|
|
| |-3-| |-3-| |-3-| |-3-| |-3-| |-3-| |-3-| |-3--|
| E E E E E E E E E E E E E E E E E E E E E E E E
|-7-7-7-x-7-7-7-7-7-x-7-7-|-7-7-7-x-7-7-7-7-7--x--7-7-|
|-8-8-8-x-8-8-8-8-8-x-8-8-|-8-8-8-x-8-8-7-7-7--x--7-7-|
|-9-9-9-x-9-9-9-9-9-x-9-9-|-9-9-9-x-9-9-8-8-8--x--8-8-|
|-9-9-9-x-9-9-9-9-9-x-9-9-|-9-9-9-x-9-9-7-7-7--x--7-7-|
|-7-7-7-x-7-7-7-7-7-x-7-7-|-7-7-7-x-7-7-9-9-9--x--9-9-|
|-------------------------|-------------7-7-7--x--7-7-|


Em
|-3-| |-3-| |-3--|
H E E E E E E +Q +Q E Q Q
|-------------------------|-----------------------------||
|-7-----------8-7-5-------|-----------------------------||
|-------------------8-6-4-|-(4)-----(4)---4-------------||
|-------------------------|-----------------2-----------||
|-------------------------|-----------------------------||
|-------------------------|-----------------------------||
|
| |-3-| |-3-| |-3-| |-3-| |-3--| |-3--| |-3-| |-3-|
| E E E E E E E E E E E E E E E E E E E E E E E E
|-7-7-7-x-7-7-7-7-7-7-7-7-|--7--7-7--x--7-7-7-7-7-x-7-7-||
|-7-7-7-x-7-7-7-7-7-7-7-7-|--7--7-7--x--7-7-8-8-8-x-8-8-||
|-8-8-8-x-8-8-8-8-8-8-8-8-|--8--8-8--x--8-8-9-9-9-x-9-9-||
|-7-7-7-x-7-7-7-7-7-7-7-7-|--7--7-7--x--7-7-9-9-9-x-9-9-||
|-9-9-9-x-9-9-9-9-9-9-9-9-|--9--9-9--x--9-9-7-7-7-x-7-7-||
|-7-7-7-x-7-7-7-7-7-7-7-7-|--7--7-7--x--7-7-------------||


Chorus
Am Em B7 Em
|-3-| |-3-| |-3-| |-3-|
E E E E E E Q Q E Q Q E H
|-8-5-0-8-5-8-7---------7-|-5---------5-------------|
|-------------------8-----|-------7-----8-----------|
|-------------------------|-------------------------|
|-------------------------|-------------------------|
|-------------------------|-------------------------|
|-------------------------|-------------------------|
|
| |-3-| |-3-| |-3-| |-3-| |-3-| |-3-| |-3-| |-3-|
| E E E E E E E E E E E E E E E E E E E E E E E E
|-5-5-5-x-5-5-7-7-7-x-7-7-|-7-7-7-x-7-7-7-7-7-x-7-7-|
|-5-5-5-x-5-5-8-8-8-x-8-8-|-7-7-7-x-7-7-8-8-8-x-8-8-|
|-5-5-5-x-5-5-9-9-9-x-9-9-|-8-8-8-x-8-8-9-9-9-x-9-9-|
|-7-7-7-x-7-7-9-9-9-x-9-9-|-7-7-7-x-7-7-9-9-9-x-9-9-|
|-7-7-7-x-7-7-7-7-7-x-7-7-|-9-9-9-x-9-9-7-7-7-x-7-7-|
|-5-5-5-x-5-5-------------|-7-7-7-x-7-7-------------|


Am Em B7
2/4
|-3-| |-3-| |-3-| |-3-| |-3-| |-3-|
E E E E E E E E E E E E E E E E E E
|-8-5-0-8-5-8-7---7-7---7-|-5-----5-----||
|---------------8-----8---|---7-8---8-7-||
|-------------------------|-------------||
|-------------------------|-------------||
|-------------------------|-------------||
|-------------------------|-------------||
|
| |-3-| |-3-| |-3-| |-3-| |-3-| |-3-|
| E E E E E E E E E E E E E E E E E E
|-5-5-5-x-5-5-7-7-7-x-7-7-|-7-7-7-x-7-7-||
|-5-5-5-x-5-5-8-8-8-x-8-8-|-7-7-7-x-7-7-||
|-5-5-5-x-5-5-9-9-9-x-9-9-|-8-8-8-x-8-8-||
|-7-7-7-x-7-7-9-9-9-x-9-9-|-7-7-7-x-7-7-||
|-7-7-7-x-7-7-7-7-7-x-7-7-|-9-9-9-x-9-9-||
|-5-5-5-x-5-5-------------|-7-7-7-x-7-7-||


Guitar Solo
Em B7
4/4 4/4
|-3--| |--3--| |-3--| |-3--| |--3--| |-3--| |--3--| |-3--|
E E E +E E E E E E E E E E E E E E E E E E E E E
|------------------12--------------|-11---------------11---------------|
|-5---12-(12)-8-12----12-8-12-0-12-|----12-10-12-0-12----12-10-12-0-12-|
|----------------------------------|-----------------------------------|
|----------------------------------|-----------------------------------|
|----------------------------------|-----------------------------------|
|----------------------------------|-----------------------------------|
|
| H H W
|-7--------------------------------|-----------------------------------|
|-8--------------------------------|-----------------------------------|
|-9--------------------------------|-----------------------------------|
|-9--------------------------------|-----------------------------------|
|-7--------------------------------|-----------------------------------|
|----------------------------------|-----------------------------------|


Em B7
|--3--| |-3--| |-3--| |-3--| |--3--| |-3--| |-3--| |--3--|
E E E E E E E E E E E E E E E E E E E E E E E E
|-12---------------12--------------|-11------------11-----------------|
|----12--8-12-0-12----12-8-12-0-12-|----12-10-12-0----10-12-0---10-12-|
|----------------------------------|----------------------------------|
|----------------------------------|----------------------------------|
|----------------------------------|----------------------------------|
|----------------------------------|----------------------------------|
|
| |----3-----| |-3--| |-3--| |--3--| |-3--| |-3--| |--3--|
| Q Q Q E E E E E E E E E E E E E E E E E E
|--7----^7----7-----7--7-7--x-7--7-|--7--7--7--x-7--7--7--7-7-x--7--7-|
|--8----^8----8-----8--8-8--x-8--8-|--7--7--7--x-7--7--7--7-7-x--7--7-|
|--9----^9----9-----9--9-9--x-9--9-|--8--8--8--x-8--8--8--8-8-x--8--8-|
|--9----^9----9-----9--9-9--x-9--9-|--7--7--7--x-7--7--7--7-7-x--7--7-|
|--7----^7----7-----7--7-7--x-7--7-|--9--9--9--x-9--9--9--9-9-x--9--9-|
|----------------------------------|--7--7--7--x-7--7--7--7-7-x--7--7-|


Em B7
|-3--| |-3--| |-3--| |-3--| |--3--| |-3--| |-3-| |-3-|
E E E E E E E E E E E E E E E E E E E E E E E E
|---12--------12--------12------|-10----10-8----8-7---7-5---5-|
|-0----8-12-0----8-12-0----8-12-|----12------10-----8-----7---|
|-------------------------------|-----------------------------|
|-------------------------------|-----------------------------|
|-------------------------------|-----------------------------|
|-------------------------------|-----------------------------|
|
| |-3--| |-3--| |-3--| |-3--| |--3--| |-3--| |-3-| |-3-|
| E E E E E E E E E E E E E E E E E E E E E E E E
|-7--7-7--x-7--7-7--7-7--x-7--7-|--7--7--7-x--7-7-7-7-7-x-7-7-|
|-8--8-8--x-8--8-8--8-8--x-8--8-|--7--7--7-x--7-7-7-7-7-x-7-7-|
|-9--9-9--x-9--9-9--9-9--x-9--9-|--8--8--8-x--8-8-8-8-8-x-8-8-|
|-9--9-9--x-9--9-9--9-9--x-9--9-|--7--7--7-x--7-7-7-7-7-x-7-7-|
|-7--7-7--x-7--7-7--7-7--x-7--7-|--9--9--9-x--9-9-9-9-9-x-9-9-|
|-------------------------------|--7--7--7-x--7-7-7-7-7-x-7-7-|


Em B7
|-3-| |-3-| |-3-| |-3-| |-3-| |---6---| |----6----|
E E E E E E E E E E E E Q E E E S S S S E S S S S S S
|-3---3-2---2-0---0-------|-----------------------------------|
|---5-----3-----3---3-0-1-|-0-----0---0-1-0-------------------|
|-------------------------|---------2-------2-0---2-0---------|
|-------------------------|---------------------4-----4-2-0---|
|-------------------------|---------------------------------3-|
|-------------------------|-----------------------------------|
|
| |-3-| |-3-| |-3-| |-3-| |-3-| |-3-| |---3---| |---3---|
| E E E E E E E E E E E E E E E E E E E E E E E E
|-7-7-7-x-7-7-7-7-7-x-7-7-|-7-7-7-x-7-7-7---7---7-x---7---7---|
|-8-8-8-x-8-8-8-8-8-x-8-8-|-7-7-7-x-7-7-7---7---7-x---7---7---|
|-9-9-9-x-9-9-9-9-9-x-9-9-|-8-8-8-x-8-8-8---8---8-x---8---8---|
|-9-9-9-x-9-9-9-9-9-x-9-9-|-7-7-7-x-7-7-7---7---7-x---7---7---|
|-7-7-7-x-7-7-7-7-7-x-7-7-|-9-9-9-x-9-9-9---9---9-x---9---9---|
|-------------------------|-7-7-7-x-7-7-7---7---7-x---7---7---|


Em B7
|---3---| |---3---|
H Q Q Q E E Q Q Q Q
|-------------------------|---------------------------|
|-----------------0---0---|-4---5---7---------0---0---|
|-------------------------|---------------------------|
|-------------------------|---------------------------|
|-2-----------------------|---------------------------|
|-------------------------|---------------------------|
|
| |-3-| |-3-| |-3-| |-3-| |--3--| |-3-| |-3-| |-3-|
| E E E E E E E E E E E E E E E E E E E E E E E E
|-7-7-7-x-7-7-7-7-7-x-7-7-|-7-7---7-x-7-7-7-7-7-x-7-7-|
|-8-8-8-x-8-8-8-8-8-x-8-8-|-7-7---7-x-7-7-7-7-7-x-7-7-|
|-9-9-9-x-9-9-9-9-9-x-9-9-|-8-8---8-x-8-8-8-8-8-x-8-8-|
|-9-9-9-x-9-9-9-9-9-x-9-9-|-7-7---7-x-7-7-7-7-7-x-7-7-|
|-7-7-7-x-7-7-7-7-7-x-7-7-|-9-9---9-x-9-9-9-9-9-x-9-9-|
|-------------------------|-7-7---7-x-7-7-7-7-7-x-7-7-|


Em B7
|---3---|
E E Q Q Q Q E E E E E E E E
|---------------------------|-----------------7---5---3---2---|
|-5---7---8---------0---0---|-4---5---7---0-------------------|
|---------------------------|-----------------8---6---4---2---|
|---------------------------|---------------------------------|
|---------------------------|---------------------------------|
|---------------------------|---------------------------------|
|
| |--3--| |-3-| |-3-| |-3-| |--3--| |--3--| |--3--| |--3--|
| E E E E E E E E E E E E E E E E E E E E E E E E
|-7-7---7-x-7-7-7-7-7-x-7-7-|-7-7---7-x-7---7-7-7---7-x-7---7-|
|-8-8---8-x-8-8-8-8-8-x-8-8-|-7-7---7-x-7---7-7-7---7-x-7---7-|
|-9-9---9-x-9-9-9-9-9-x-9-9-|-8-8---8-x-8---8-8-8---8-x-8---8-|
|-9-9---9-x-9-9-9-9-9-x-9-9-|-7-7---7-x-7---7-7-7---7-x-7---7-|
|-7-7---7-x-7-7-7-7-7-x-7-7-|-9-9---9-x-9---9-9-9---9-x-9---9-|
|---------------------------|-7-7---7-x-7---7-7-7---7-x-7---7-|


3rd Verse
Em N.C.
|----3-----| |3|
W W H T T S +E E E Q H H
|-0--------||----------|------7h8p7-(7)--------|-----------|
|----------||----------|----------------10-7---|-----------|
|-0--------||----------|---------------------8-|-----------|
|----------||----------|-----------------------|-7---------|
|----------||----------|-----------------------|-----------|
|----------||----------|-----------------------|-----------|
|
| W W W W
|-0--------||----------|-----------------------|-----------|
|-0--------||----------|-----------------------|-----------|
|-0--------||----------|-----------------------|-----------|
|-2--------||----------|-----------------------|-----------|
|-2--------||----------|-----------------------|-----------|
|-0--------||----------|-----------------------|-----------|


Em
|-3-|
H Q Q E +H. Q
|--------------7-|-(7)-----------------7-----|
|----------------|---------------------------|
|----------------|---------------------------|
|----------------|---------------------------|
|----------------|---------------------------|
|----------------|---------------------------|
|
| |--3--| |-3--| |-3-| |-3-| |-3-|
| H Q Q Q E E E E E E E E E E E E
|--------7---7---|--7--7-7-x-7-7-7-7-7-x-7-7-|
|--------8---8---|--8--8-8-x-8-8-8-8-8-x-8-8-|
|--------9---9---|--9--9-9-x-9-9-9-9-9-x-9-9-|
|--------9---9---|--9--9-9-x-9-9-9-9-9-x-9-9-|
|--------7---7---|--7--7-7-x-7-7-7-7-7-x-7-7-|
|----------------|---------------------------|


B7
E E E E H W
|-7------------8---7-----------|-------------------------|
|-----8---10-------------------|-7-----------------------|
|------------------------------|-------------------------|
|------------------------------|-------------------------|
|------------------------------|-------------------------|
|------------------------------|-------------------------|
|
| |--3--| |--3--| |-3-| |-3-| |-3-| |-3-| |-3-| |-3-|
| E E E E E E E E E E E E E E E E E E E E E E E E
|-7-7---7--x-7---7-7-7-7-x-7-7-|-7-7-7-x-7-7-7-7-7-x-7-7-|
|-8-8---8--x-8---8-7-7-7-x-7-7-|-7-7-7-x-7-7-7-7-7-x-7-7-|
|-9-9---9--x-9---9-8-8-8-x-8-8-|-8-8-8-x-8-8-8-8-8-x-8-8-|
|-9-9---9--x-9---9-7-7-7-x-7-7-|-7-7-7-x-7-7-7-7-7-x-7-7-|
|-7-7---7--x-7---7-9-9-9-x-9-9-|-9-9-9-x-9-9-9-9-9-x-9-9-|
|------------------7-7-7-x-7-7-|-7-7-7-x-7-7-7-7-7-x-7-7-|


Chorus
Em Am Em
|---3----| |---3---|
Q E E H Q Q Q Q Q Q
|----------------------------||-8--------8---7-------7---|
|-8--------------------------||-----10---------------8---|
|-------8---11---9-----------||------------------9-------|
|----------------------------||--------------------------|
|----------------------------||--------------------------|
|----------------------------||--------------------------|
|
| |-3-| |--3---| |-3-| |-3-| |-3--| |-3-| |-3-| |-3-|
| E E E E E E E E E E E E E E E E E E E E E E E E
|-7-7-7-x-7----7-7-7-7-x-7-7-||-5-5--5-x-5-5-7-7-7-x-7-7-|
|-7-7-7-x-7----7-8-8-8-x-8-8-||-5-5--5-x-5-5-8-8-8-x-8-8-|
|-8-8-8-x-8----8-9-9-9-x-9-9-||-5-5--5-x-5-5-9-9-9-x-9-9-|
|-7-7-7-x-7----7-9-9-9-x-9-9-||-7-7--7-x-7-7-9-9-9-x-9-9-|
|-9-9-9-x-9----9-7-7-7-x-7-7-||-7-7--7-x-7-7-7-7-7-x-7-7-|
|-7-7-7-x-7----7-------------||-5-5--5-x-5-5-------------|


B7 Em Am Em
|---3---| |---3---| |--3--| |--3--| |-3-| |-3--|
Q Q Q Q Q Q E E E +E E E E E E +E E E
|-5-------5---7-------7---|-------8--(8)--8-------7-(7)-7---|
|---------7-----------8---|---10-10-(10)-10-----8-8-(8)-8---|
|-----8-----------9-------|-9-----------------9-------------|
|-------------------------|---------------------------------|
|-------------------------|---------------------------------|
|-------------------------|---------------------------------|
|
| |-3-| |-3-| |-3-| |-3-| |--3--| |--3--| |-3-| |-3--|
| E E E E E E E E E E E E E E E E E E E E E E E E
|-7-7-7-x-7-7-7-7-7-x-7-7-|-5--5--5---x---5-5-7-7-7--x--7-7-|
|-7-7-7-x-7-7-8-8-8-x-8-8-|-5--5--5---x---5-5-8-8-8--x--8-8-|
|-8-8-8-x-8-8-9-9-9-x-9-9-|-5--5--5---x---5-5-9-9-9--x--9-9-|
|-7-7-7-x-7-7-9-9-9-x-9-9-|-7--7--7---x---7-7-9-9-9--x--9-9-|
|-9-9-9-x-9-9-7-7-7-x-7-7-|-7--7--7---x---7-7-7-7-7--x--7-7-|
|-7-7-7-x-7-7-------------|-5--5--5---x---5-5---------------|


B7 Em Am Em
|-3-| |-3--| |-3-| |-3--| |-3--| |-3--| |-3-| |-3-|
E E E +E E E E E E +E E E E E E E E E E E E E E E
|-----5-(5)-5-------7-(7)-7---|----8------8-----7-----7---|
|---4-4-(4)-4-----8-8-(8)-8---|---10-----10-----8-----8---|
|-4-------------9-------------|-9-------------9-----------|
|-----------------------------|---------------------------|
|-----------------------------|---------------------------|
|-----------------------------|---------------------------|
|
| |-3-| |-3--| |-3-| |-3--| |-3--| |-3--| |-3-| |-3-|
| E E E E E E E E E E E E E E E E E E E E E E E E
|-7-7-7--x--7-7-7-7-7--x--7-7-|-5--5-5-x--5-5-7-7-7-x-7-7-|
|-7-7-7--x--7-7-8-8-8--x--8-8-|-5--5-5-x--5-5-8-8-8-x-8-8-|
|-8-8-8--x--8-8-9-9-9--x--9-9-|-5--5-5-x--5-5-9-9-9-x-9-9-|
|-7-7-7--x--7-7-9-9-9--x--9-9-|-7--7-7-x--7-7-9-9-9-x-9-9-|
|-9-9-9--x--9-9-7-7-7--x--7-7-|-7--7-7-x--7-7-7-7-7-x-7-7-|
|-7-7-7--x--7-7---------------|-5--5-5-x--5-5-------------|


B7 Em Am Em
|-3-| |-3-| |-3-| |-3-| |-3--| |-3--| |-3-| |-3-|
E E E E E E E E E E E E E E E E E E E E E E E E
|---5-----5-----7-----7---|----8------8-----7-----7---|
|---7-----7-----8-----8---|---10-----10-----8-----8---|
|-8-----------9-----------|-9-------------9-----------|
|-------------------------|---------------------------|
|-------------------------|---------------------------|
|-------------------------|---------------------------|
|
| |-3-| |-3-| |-3-| |-3-| |-3--| |-3--| |-3-| |-3-|
| E E E E E E E E E E E E E E E E E E E E E E E E
|-7-7-7-x-7-7-7-7-7-x-7-7-|-5--5-5-x--5-5-7-7-7-x-7-7-|
|-7-7-7-x-7-7-8-8-8-x-8-8-|-5--5-5-x--5-5-8-8-8-x-8-8-|
|-8-8-8-x-8-8-9-9-9-x-9-9-|-5--5-5-x--5-5-9-9-9-x-9-9-|
|-7-7-7-x-7-7-9-9-9-x-9-9-|-7--7-7-x--7-7-9-9-9-x-9-9-|
|-9-9-9-x-9-9-7-7-7-x-7-7-|-7--7-7-x--7-7-7-7-7-x-7-7-|
|-7-7-7-x-7-7-------------|-5--5-5-x--5-5-------------|


B7 Em
2/4 4/4
TP
|-3-| |-3-|
E E E E E E W 3x +W
|---5-----5---||--12------------------------||-(12)----*|
|---7-----7---||o--------------------------o||---------*|
|-8-----------||----------------------------||---------*|
|-------------||----------------------------||---------*|
|-------------||o--------------------------o||---------*|
|-------------||----------------------------||---------*|
|
| |-3-| |-3-| |-3-| |-3-| |-3-| |-3-|
| E E E E E E E E E E E E E E E E E E 3x W
|-7-7-7-x-7-7-||---7-7-7-x-7-7-7-7-7-x-7-7--||---7-----*|
|-7-7-7-x-7-7-||o--8-8-8-x-8-8-8-8-8-x-8-8-o||---8-----*|
|-8-8-8-x-8-8-||---9-9-9-x-9-9-9-9-9-x-9-9--||---9-----*|
|-7-7-7-x-7-7-||---9-9-9-x-9-9-9-9-9-x-9-9--||---9-----*|
|-9-9-9-x-9-9-||o--7-7-7-x-7-7-7-7-7-x-7-7-o||---7-----*|
|-7-7-7-x-7-7-||----------------------------||---------*|



Duration Legend
---------------
W - whole; H - half; Q - quarter; E - 8th; S - 16th; T - 32nd; X - 64th; a - acciaccatura
+ - note tied to previous; . - note dotted; .. - note double dotted
Uncapitalized letters represent notes that are staccato (1/2 duration)
Irregular groupings are notated above the duration line
Duration letters will always appear directly above the note/fret number it represents the
duration for. Duration letters with no fret number below them represent rests. Multi-
bar rests are notated in the form Wxn, where n is the number of bars to rest for. Low
melody durations appear below the staff

Tablature Legend
----------------
h - hammer-on
p - pull-off
b - bend
pb - pre-bend
r - bend release (if no number after the r, then release immediately)
/\ - slide into or out of (from/to "nowhere")
s - legato slide
S - shift slide
<n> - natural harmonic
[n] - artificial harmonic
n(n) - tapped harmonic
~ - vibrato
tr - trill
T - tap
TP - trem. picking
PM - palm muting
\n/ - tremolo bar dip; n = amount to dip
\n - tremolo bar down
n/ - tremolo bar up
/n\ - tremolo bar inverted dip
= - hold bend; also acts as connecting device for hammers/pulls
<> - volume swell (louder/softer)
x - on rhythm slash represents muted slash
o - on rhythm slash represents single note slash

Misc Legend
-----------
| - bar
|| - double bar
||o - repeat start
o|| - repeat end
*| - double bar (ending)
: - bar (freetime)
$ - Segno
& - Coda
Tempo markers - <E/E./Q/Q./H/H.> = BPM(8/16=s8/s16), where s8 = swing 8ths, s16 = swing 16ths


** Generated using Power Tab Editor by Brad Larsen: The Official Power Tab Web Site

ProTabs promo.jpg

Onbeperkt en gratis toegang tot alle 25.000
Tabs & Chords en direct meespelen met

Artiest Liedje

...

Gitaarakkoorden los lobos and antonio banderas - Cancion del mariachi

Dankzij de bladmuziek op deze pagina wordt het een stuk makkelijker om met de gitaar mee te spelen met Cancion del mariachi van los lobos and antonio banderas De ProTabs van Gitaartabs worden door onze professionele gitaardocenten samengesteld. De tabs en chords zijn door leden zelf geplaatst. Deze undefined van los lobos and antonio banderas met Cancion del mariachi is voor je geschreven door sollie

Tabs & Chords van los lobos and antonio banderas - Cancion del mariachi

Bij de ProTabs delen we niet alleen de tablatuur maar ook de speelwijze van Cancion del mariachi Met een beetje gitaar ervaring moet je dit gitaarliedje zeker kunnen spelen, maar als het niet lukt zijn we er altijd om je te helpen. Door een gratis account aan te maken krijg je niet alleen toegang tot deze tab ,akkoorden & tabs van Cancion del mariachi maar kun je ook onbeperkt meespelen met een van de meer dan 25.000 andere tabs & chords in onze database.