Simple man

Gitaarliedjes, tabs & akkoorden (chords) Simple man - lynyrd skynyrd

Songtype: Tab

arrow&v

Markeer als favoriet

Favoriet

Gemarkeerd als favoriet

Capo:

0

lynyrd skynyrd

lynyrd skynyrd

Song
Album
Categorie

Simple man

Downloads
1694
Niveau
2

Geplaatst door
ruben de vries
ProTabs-promo.jpg

Simple Man-Lynyrd Skynyrd :made by Ruben de Vries

Verse
e|---------------------|-------------------|--------------------3--|
B|-------------1-------|-------------------|------1-------1-------1|
G|-------0-------0---0-|---------0---------|2-------2---2---2------|
D|---------2-------2---|---0-------0---0---|--2-------2-------2----| 6x
A|-0-2-3-----3---------|-----2-------2---0-|----0------------------|
E|---------------------|-3-----3-----------|-----------------------|53355

Interlude
e|-------------------------------------|
B|-------------------------------------|
G|-------------------------------------|
D|-------------------------------------| 2x
A|-0-2-3-----5b---3--------------------|
E|------------------5-----0--3--0--3/5-|
Verse
e|---------------------|-------------------|--------------------3--|
B|-------------1-------|-------------------|------1-------1-------1|
G|-------0-------0---0-|---------0---------|2-------2---2---2------|
D|---------2-------2---|---0-------0---0---|--2-------2-------2----| 4x
A|-0-2-3-----3---------|-----2-------2---0-|----0------------------|
E|---------------------|-3-----3-----------|-----------------------|
Chorus
e|-----------------------------------------|
B|-----------------------------------------|
G|-----------------------------------------|
D|-10---------10/5--5---7----------------7-| 4x
A|-10---------10/5--5---7----------------7-|
E|--8----------8/3--3---5---------0-3-0--5-|
Verse
e|---------------------|-------------------|--------------------3--|
B|-------------1-------|-------------------|------1-------1-------1|
G|-------0-------0---0-|---------0---------|2-------2---2---2------|
D|---------2-------2---|---0-------0---0---|--2-------2-------2----| 4x
A|-0-2-3-----3---------|-----2-------2---0-|----0------------------|
E|---------------------|-3-----3-----------|-----------------------|
Chorus
e|-----------------------------------------|
B|-----------------------------------------|
G|-----------------------------------------|
D|-10---------10/5--5---7----------------7-| 4x
A|-10---------10/5--5---7----------------7-|
E|--8----------8/3--3---5---------0-3-0--5-|
Solo
e|------------------------------------------------------|--------------8-------------------------------|
B|------------------------------------------------------|----8-10-10-----10-----------20-------20------|
G|-5-7--7b-------7b--5--7----------------7b--5----------|-/9--------------------17-19-19b---------19b--|
D|------------------------------------------------7-----|--------------------/19-----------------------|
A|------------------------------------------------------|----------------------------------------------|
E|------------------------------------------------------|----------------------------------------------|

e|--------------------------------17-|-20b-20b-20b-20b-20b---17--------|
B|---------------------20b-----17----|-------------------------17--20b-|
G|-17--19----19b--17-----------------|---------------------------------|
D|-------------------19--------------|---------------------------------|
A|-----------------------------------|---------------------------------|
E|-----------------------------------|---------------------------------|

e|------------------------17-----------17----|-----17---------17----------------------|
B|-20b--17-20---------------20b----------20b-|-------20b----17--17-20b----------------|
G|---------------------19b---------19b-------|-19b--------------------------5-7-7b----|
D|-------------------------------------------|-----------------------------7----------|
A|-------------------------------------------|----------------------------------------|
E|-------------------------------------------|----------------------------------------|

e|---------------------5------|--------------------------------|
B|-10-------------------5--8b-|--------------------------------|
G|----7b---5-7b-----7b--------|--------------------------------|
D|----------------------------|---------------------17-19--19b-|
A|----------------------------|-----15-17--17/19-19------------|
E|----------------------------|--/17---------------------------|

e|--------------------------------------------------|
B|----20---------20--------------20b-------8--------|
G|------19b--------19b--17-------------------7b--5--|
D|-/19--------------------------------------------7-|
A|--------------------------------------------------|
E|--------------------------------------------------|

e|-------------------------------------|
B|-------------------------------------|
G|-------------------------------------|
D|-------------------------------------| 2x
A|-0-2-3-----5b---3--------------------|
E|------------------5-----0--3--0--3/5-|
Verse
e|---------------------|-------------------|--------------------3--|
B|-------------1-------|-------------------|------1-------1-------1|
G|-------0-------0---0-|---------0---------|2-------2---2---2------|
D|---------2-------2---|---0-------0---0---|--2-------2-------2----| 4x
A|-0-2-3-----3---------|-----2-------2---0-|----0------------------|
E|---------------------|-3-----3-----------|-----------------------|
Chorus
e|-----------------------------------------|
B|-----------------------------------------|
G|-----------------------------------------|
D|-10---------10/5--5---7----------------7-| 8x
A|-10---------10/5--5---7----------------7-|
E|--8----------8/3--3---5---------0-3-0--5-|

ProTabs promo.jpg

Onbeperkt en gratis toegang tot alle 25.000
Tabs & Chords en direct meespelen met

Artiest Liedje

...

Gitaarakkoorden lynyrd skynyrd - Simple man

Dankzij de bladmuziek op deze pagina wordt het een stuk makkelijker om met de gitaar mee te spelen met Simple man van lynyrd skynyrd De ProTabs van Gitaartabs worden door onze professionele gitaardocenten samengesteld. De tabs en chords zijn door leden zelf geplaatst. Deze undefined van lynyrd skynyrd met Simple man is voor je geschreven door ruben de vries

Tabs & Chords van lynyrd skynyrd - Simple man

Bij de ProTabs delen we niet alleen de tablatuur maar ook de speelwijze van Simple man Met een beetje gitaar ervaring moet je dit gitaarliedje zeker kunnen spelen, maar als het niet lukt zijn we er altijd om je te helpen. Door een gratis account aan te maken krijg je niet alleen toegang tot deze tab ,akkoorden & tabs van Simple man maar kun je ook onbeperkt meespelen met een van de meer dan 25.000 andere tabs & chords in onze database.

Plaats opmerking

Verstuur

Beoordeel deze song

Rate UsDon’t love itNot greatGoodGreatLove itRate Us

Bedankt voor je beoordeling!