Beat it (intro) (tabs)

Gitaarliedjes, tabs & akkoorden (chords) Beat it (intro) (tabs) - michael jackson

Songtype: Tab

arrow&v

Markeer als favoriet

Favoriet

Gemarkeerd als favoriet

Capo:

0

michael jackson

michael jackson

Song
Album
Categorie

Beat it (intro) (tabs)

Downloads
290
Niveau
1
thriller

Geplaatst door
gitaartabs
ProTabs-promo.jpg

Artist: Michael Jackson
Album: Thriller
Year Album: 1982
Song: Beat It

Intro
e|------------------------------------------------------------
B|------------------------------------------------------------
G|------0-----------------------------------------------------
D|--------2-4-2-0-0-------------------------------------------
A|----2-------------------------------------------------------
E|0-3---------------------------------------------------------



e|------------------------------------------------------------
B|------------------------------------------------------------
G|------0-----------------------------------------------------
D|--------2-4-2-0---------------------------------------------
A|----2-------------------------------------------------------
E|0-3---------------------------------------------------------

ProTabs promo.jpg

Onbeperkt en gratis toegang tot alle 25.000
Tabs & Chords en direct meespelen met

Artiest Liedje

...

Gitaarakkoorden michael jackson - Beat it (intro) (tabs)

Dankzij de bladmuziek op deze pagina wordt het een stuk makkelijker om met de gitaar mee te spelen met Beat it (intro) (tabs) van michael jackson De ProTabs van Gitaartabs worden door onze professionele gitaardocenten samengesteld. De tabs en chords zijn door leden zelf geplaatst. Deze undefined van michael jackson met Beat it (intro) (tabs) is voor je geschreven door gitaartabs

Tabs & Chords van michael jackson - Beat it (intro) (tabs)

Bij de ProTabs delen we niet alleen de tablatuur maar ook de speelwijze van Beat it (intro) (tabs) Met een beetje gitaar ervaring moet je dit gitaarliedje zeker kunnen spelen, maar als het niet lukt zijn we er altijd om je te helpen. Door een gratis account aan te maken krijg je niet alleen toegang tot deze tab ,akkoorden & tabs van Beat it (intro) (tabs) maar kun je ook onbeperkt meespelen met een van de meer dan 25.000 andere tabs & chords in onze database.

Plaats opmerking

Verstuur

Beoordeel deze song

Rate UsDon’t love itNot greatGoodGreatLove itRate Us

Bedankt voor je beoordeling!