Ayo technology

Gitaarliedjes, tabs & akkoorden (chords) Ayo technology - milow

Songtype: Tab

arrow&v

Markeer als favoriet

Favoriet

Gemarkeerd als favoriet

Capo:

0

milow

milow

Song
Album
Categorie

Ayo technology

Downloads
2128
Niveau
2
Geplaatst door
koen
ProTabs-promo.jpg

hopelijk hebben jullie er iets aan ik ben nog niet zo goed op weg met akkoorden ik hoop dat jullie
er een beetje uitgraken

sorry als het niet goed is

ik heb de tab een beetje aangepast

zet je capo op de 7de fret en dit zijn de tabs voor met capo

Hopelijk is hij nu juist have fun with this song

( Met capo )

e|----2----0----3-----------------------------------------------
B|----4----0----2-----------------------------------------------
G|----4----2----0-----------------------------------------------
D|----3----2----0-----------------------------------------------
A|----2----2----0-----------------------------------------------
E|----2----0----3-----------------------------------------------






( Baree )
e|---7------------5--------------3------------------------|
B|---7------------5--------------3------------------------|
G|---7------------6--------------4------------------------|
D|---9------------7--------------5------------------------|
A|---9------------7--------------5------------------------|
E|---7------------5--------------3------------------------|


em A a 3de fret baree



op het stuck met 'she wants it...'
e|-----------------------------------------------------------------------|
B|----------12--10--12----12--10--12------12--10--12-----12--10--12------|
G|-------------------------------------7---------------7-----------------|
D|-----7/9--------------9------------------------------------------------|
A|-----------------------------------------------------------------------|
E|-----------------------------------------------------------------------


INTRO:


Em A a


Em
She work it girl, she work the pole
She break it down, she take it low
A
She fine as hell, she about the dough
a
She doing her thing out on the floor


Em
Her money money, she makin' makin'
Look at the way she shakin' shakin'
A
Make you want to touch it, make you want to taste it
a A a
Have you lustin' for her, go crazy face it


Em
She's so much more than you're used to
She know's just how to move to seduce you
A
She gone do the right thing and touch the right spot
a
Dance in you're lap till you're ready to pop


Em
She always ready, when you want it she want it
A a
Like a nympho, the info, I show you where to meet her


Em
On the late night, till daylight the club jumpin'
A a
If you want a good time, she gone give you what you want


PRE-CHORUS:


Em
Baby this a new age, you like my new craze
A a
Let's get together maybe we can start a new phase
Em
The smokes got the club all hazy, spotlights don't do you justice baby
A a
Why don't you come over here, you got me saying


REFREIN:


Em
Aayooh
A a
I'm tired of using technology, why don't you sit down on top of me

Em
Aayooh
A a A a
I'm tired of using technology, I need you right in front of me


COUPLET :


Em
In her fantasy, there's plain to see
A
Just how it be, on me, backstrokin', sweat soaking
a
All into my set sheets
Em
When she ready to ride, I'm ready to roll
I'll be in this bitch till the club close
A
What should I do, one thing on all fours
a
Now that that shit should be against the law



Em
Different style, different move, girl I like the way you move
A a
Girl you got me thinking about, all the things I do to you
Em
Let's get it poppin' shorty we can switch positions
A a
From the couch to the counters in my kitchen


PRE-CHORUS:


Em
Baby this a new age, you like my new craze
A a
Let's get together maybe we can start a new phase
Em
The smokes got the club all hazy, spotlights don't do you justice baby
A a
Why don't you come over here, you got me saying


REFREIN:


Em
Aayooh
A a
I'm tired of using technology, why don't you sit down on top of me

Em
Aayooh
A a
I'm tired of using technology, I need you right in front of me


Em
Ooh, she wants it, ooh, she wants it
A a Em
Ooh, she wants it, I got to give it to her


Ooh, she wants it, ooh, she wants it
A a Em
Ooh, she wants it, I got to give it to her
A a
I got to give it to her



Em
Baby this a new age, you like my new craze
A a
Let's get together maybe we can start a new phase
Em
The smokes got the club all hazy, spotlights don't do you justice baby
A a
Why don't you come over here, you got me saying


Em
Aayooh
A a Em
I'm tired of using technology, I need you right in front of me

ProTabs promo.jpg

Onbeperkt en gratis toegang tot alle 25.000
Tabs & Chords en direct meespelen met

Artiest Liedje

...

Gitaarakkoorden milow - Ayo technology

Dankzij de bladmuziek op deze pagina wordt het een stuk makkelijker om met de gitaar mee te spelen met Ayo technology van milow De ProTabs van Gitaartabs worden door onze professionele gitaardocenten samengesteld. De tabs en chords zijn door leden zelf geplaatst. Deze undefined van milow met Ayo technology is voor je geschreven door koen

Tabs & Chords van milow - Ayo technology

Bij de ProTabs delen we niet alleen de tablatuur maar ook de speelwijze van Ayo technology Met een beetje gitaar ervaring moet je dit gitaarliedje zeker kunnen spelen, maar als het niet lukt zijn we er altijd om je te helpen. Door een gratis account aan te maken krijg je niet alleen toegang tot deze tab ,akkoorden & tabs van Ayo technology maar kun je ook onbeperkt meespelen met een van de meer dan 25.000 andere tabs & chords in onze database.

Plaats opmerking

Beoordeel deze song

Rate UsDon’t love itNot greatGoodGreatLove itRate Us

Bedankt voor je beoordeling!