The end

Gitaarliedjes, tabs & akkoorden (chords) The end - my chemical romance

Songtype: Tab

arrow&v

Markeer als favoriet

Favoriet

Gemarkeerd als favoriet

Capo:

0

my chemical romance

my chemical romance

Song
Album
Categorie

The end

Downloads
240
Niveau
2
the black parade

Geplaatst door
kevin
ProTabs-promo.jpg

Kevin Bruin

My Chemical Romance - The End

Intro:

e-x---x-x-x-x-x---x-x-x-x-x-|
B-x---x-x-x-x-x---x-x-x-x-x-|
G-x---x-x-x-x-x---x-x-x-x-x-|
D-x---x-x-x-x-x---x-x-x-x-x-|
A-x---x-x-x-x-x---x-x-x-x-x-|
E-x---x-x-x-x-x---x-x-x-x-x-|

Verse:
G G
e-3---3-3-3-3-3---3-3-3-3-|-3---3-3-3-3-3---------|
B-3---3-3-3-3-3---3-3-3-3-|-3---3-3-3-3-3---------|
D-0---0-0-0-0-0---0-0-0-0-|-0---0-0-0-0-0---------|
A-2---2-2-2-2-2---2-2-2-2-|-2---2-2-2-2-2---------|
E-3---3-3-3-3-3---3-3-3-3-|-3---3-3-3-3-3---3--2--|

Em
e-0---0-0-0-0-0---0-0-0-0-|
B-0---0-0-0-0-0---0-0-0-0-|
G-0---0-0-0-0-0---0-0-0-0-| 2X
D-2---2-2-2-2-2---2-2-2-2-|
A-2---2-2-2-2-2---2-2-2-2-|
E-0---0-0-0-0-0---0-0-0-0-|

C#m
e-0---0-0-0-0-0---0-0-0-0-|
B-0---0-0-0-0-0---0-0-0-0-|
G-6---6-6-6-6-6---6-6-6-6-| 2X
D-6---6-6-6-6-6---6-6-6-6-|
A-4---4-4-4-4-4---4-4-4-4-|
E-x---x-x-x-x-x---x-x-x-x-|

Cm
e-0---0-0-0-0-0---0-0-0-0-|
B-0---0-0-0-0-0---0-0-0-0-|
G-5---5-5-5-5-5---5-5-5-5-| 2X
D-5---5-5-5-5-5---5-5-5-5-|
A-3---3-3-3-3-3---3-3-3-3-|
E-x---x-x-x-x-x---x-x-x-x-|

ProTabs promo.jpg

Onbeperkt en gratis toegang tot alle 25.000
Tabs & Chords en direct meespelen met

Artiest Liedje

...

Gitaarakkoorden my chemical romance - The end

Dankzij de bladmuziek op deze pagina wordt het een stuk makkelijker om met de gitaar mee te spelen met The end van my chemical romance De ProTabs van Gitaartabs worden door onze professionele gitaardocenten samengesteld. De tabs en chords zijn door leden zelf geplaatst. Deze undefined van my chemical romance met The end is voor je geschreven door kevin

Tabs & Chords van my chemical romance - The end

Bij de ProTabs delen we niet alleen de tablatuur maar ook de speelwijze van The end Met een beetje gitaar ervaring moet je dit gitaarliedje zeker kunnen spelen, maar als het niet lukt zijn we er altijd om je te helpen. Door een gratis account aan te maken krijg je niet alleen toegang tot deze tab ,akkoorden & tabs van The end maar kun je ook onbeperkt meespelen met een van de meer dan 25.000 andere tabs & chords in onze database.

Plaats opmerking

Verstuur

Beoordeel deze song

Rate UsDon’t love itNot greatGoodGreatLove itRate Us

Bedankt voor je beoordeling!