Phantom of the opera

Gitaarliedjes, tabs & akkoorden (chords) Phantom of the opera - nightwish

Songtype: Tab

arrow&v

Markeer als favoriet

Favoriet

Gemarkeerd als favoriet

Capo:

0

nightwish

nightwish

Song
Album
Categorie

Phantom of the opera

Downloads
3368
Niveau
2

Geplaatst door
[b]lack[a]ngel
ProTabs-promo.jpg

Hele mooie versie (tenm. dat vind ik zelf) van the Phantom of the Opera (wie kent uhm niet))
Succes

D|--------------------------|------------------------------|
A|--------------------------|------------------------------|
F|--------------------------|------------------------------|
C|--------------------------|------------------------------|
G|----------7-8---8-9-10-11-|--12------------12-11--10--9--|
D|----------5-6---6-7-8--9--|--10------------10-9---8---7--|



|------------------------------|--------------------|------------------|
|------------------------------|--------------------|------------------|
|------------------------------|--------------------|------------------|
|------------------------------|--------------------|------------------|
|--8--------7-8---8-9--10--11--|--12----------------|------------------|
|--6--------5-6---6-7--8---9---|--10----------------|------------------|



|------------------|------------------|------------------|---------------------|
|------------------|------------------|------------------|---------------------|
|------------------|------------------|------------------|---------------------|
|------------------|------------------|------------------|--8--------10--------|
|------------------|------------------|------------------|--8--------10--------|
|------------------|------------------|------------------|--6--------8---------|



|----------------------------------------|--------------------|
|----------------------------------------|--------------------|
|----------------------------------------|--------------------|
|--12-----------------------10-----------|--12----------------|
|--12--------12--12-12--12-----12--13-12-|--12----------------|
|--10--------10-----10--10-----10--------|--10----------------|



|-------------------|------------------------------|----------------------------|
|-------------------|------------------------------|----------------------------|
|-------------------|------------------------------|----------------------------|
|--8----------------|------------------------------|----------------------------|
|--8----------------|--12------------12-11--10--9--|--8--------7-8---8-8--8--8--|
|--6----------------|--10------------10-9---8---7--|--6--------5-6---6-6--6--6--|



|-------------------|------------------|------------------|------------------|
|-------------------|------------------|------------------|------------------|
|-------------------|------------------|------------------|------------------|
|-------------------|------------------|------------------|------------------|
|--5----------------|------------------|------------------|------------------|
|--3----------------|------------------|------------------|------------------|



|------------------|---------------------|
|------------------|---------------------|
|------------------|---------------------|
|------------------|--8--------10--------|
|------------------|--8--------10--------|
|------------------|--6--------8---------|



|----------------------------------------|--------------------|
|----------------------------------------|--------------------|
|----------------------------------------|--------------------|
|--12-----------------------10-----------|--12----------------|
|--12--------12--12-12--12-----12--13-12-|--12----------------|
|--10--------10-----10--10-----10--------|--10----------------|



|-------------------|------------------------------|--------------------|
|-------------------|------------------------------|--------------------|
|-------------------|------------------------------|--------------------|
|--8----------------|------------------------------|--8--------7--------|
|--8----------------|--12------------12-11--10--9--|--6--------5--------|
|--6----------------|--10------------10-9---8---7--|--------------------|



|-------------------|------------------|------------------|------------------|
|-------------------|------------------|------------------|------------------|
|-------------------|------------------|------------------|------------------|
|--9----------------|------------------|------------------|------------------|
|--7----------------|------------------|------------------|------------------|
|-------------------|------------------|------------------|------------------|



|------------------|--------------------|
|------------------|--------------------|
|------------------|--5--------7--------|
|------------------|--5--------7--------|
|------------------|--3--------5--------|
|------------------|--------------------|



|--------------------------------------------------|
|--------------------------------------------------|
|--------------------------------------------------|
|--9-9--9--9--12-12--11-11--10-9--9--9--12-11-10-9-|
|--7-7--7--7--10-10--9--9---8--7--7--7--10-9--8--7-|
|--------------------------------------------------|



|--------------------------------------|--------------------------------------|
|--------------------------------------|--------------------------------------|
|--------------------------------------|--5--------5--------5--------5--------|
|--9--9--9--9--9--9--9--9--9--9--9--9--|--5--5--5--5--5--5--5--5--5--5--5--5--|
|--7--7--7--7--7--7--7--7--7--7--7--7--|--3--3--3--3--3--3--3--3--3--3--3--3--|
|--------------------------------------|--------------------------------------|



|-------------------------------------|-------------------------------------|
|-------------------------------------|-------------------------------------|
|--9--------9--------9--------9-8-7-6-|--5--------5--------5--------5-6-7-8-|
|--9--9--9--9--9--9--9--9--9--9-8-7-6-|--5--5--5--5--5--5--5--5--5--5-6-7-8-|
|--7--7--7--7--7--7--7--7--7--7-6-5-4-|--3--3--3--3--3--3--3--3--3--3-4-5-6-|
|-------------------------------------|-------------------------------------|



|-------------------------------------|--------------------------------------|
|-------------------------------------|--------------------------------------|
|--9--------9--------9--------9-8-7-6-|--5--------5--------4--------4--------|
|--9--9--9--9--9--9--9--9--9--9-8-7-6-|--5--5--5--5--5--5--4--4--4--4--4--4--|
|--7--7--7--7--7--7--7--7--7--7-6-5-4-|--3--3--3--3--3--3--2--2--2--2--2--2--|
|-------------------------------------|--------------------------------------|



|-------------------------|-----------------------|--------------------|
|-------------------------|-----------------------|--------------------|
|-------------------------|-----------------------|--6--------8--------|
|--10-------8-10-----8--8-|--10-------8-10--------|--6--------8--------|
|--8--------6-8------6--6-|--8--------6-8---------|--4--------6--------|
|-------------------------|-----------------------|--------------------|



|----------------------------------------------------------------|
|----------------------------------------------------------------|
|----------------------------------------------------------------|
|--10-10--10--10--10--10--10--10--10--10--10--10--10--10--10--10-|
|--8--8---8---8---8---8---8---8---8---8---8---8---8---8---8---8--|
|----------------------------------------------------------------|



|--------------------|
|--------------------|
|--6--------8--------|
|--6--------8--------|
|--4--------6--------|
|--------------------|



|----------------------------------------------------------------|
|----------------------------------------------------------------|
|----------------------------------------------------------------|
|--10-10--10--10--10--10--10--10--10--10--10--10--10--10--10--10-|
|--8--8---8---8---8---8---8---8---8---8---8---8---8---8---8---8--|
|----------------------------------------------------------------|



|--------------------|-----------------------------------------------|
|--------------------|-----------------------------------------------|
|--6--------8--------|--10-------------------------------------------|
|--6--------8--------|--10-10--10--10--10----9----8----6-5-6--6-8--8-|
|--4--------6--------|--8--8---8---8---8--8--7-7--6-6--4-3-4--4-6--6-|
|--------------------|-----------------------------------------------|



|--------------------------------------------------|
|--------------------------------------------------|
|--10----------10----------10----------10----------|
|--10--10--10--10--10--10--10--10--10--10--10--10--|
|--8---8---8---8---8---8---8---8---8---8---8---8---|
|--------------------------------------------------|



|--------------------------------------|
|--------------------------------------|
|--6--------6--------6--------6--------|
|--6--6--6--6--6--6--6--6--6--6--6--6--|
|--4--4--4--4--4--4--4--4--4--4--4--4--|
|--------------------------------------|



|-----------------------------------------------|
|-----------------------------------------------|
|--10----------10----------10----------10-9-8-7-|
|--10--10--10--10--10--10--10--10--10--10-9-8-7-|
|--8---8---8---8---8---8---8---8---8---8--7-6-5-|
|-----------------------------------------------|



|-------------------------------------|
|-------------------------------------|
|--6--------6--------6--------6-7-8-9-|
|--6--6--6--6--6--6--6--6--6--6-7-8-9-|
|--4--4--4--4--4--4--4--4--4--4-5-6-7-|
|-------------------------------------|



|-----------------------------------------------|
|-----------------------------------------------|
|--10----------10----------10----------10-9-8-7-|
|--10--10--10--10--10--10--10--10--10--10-9-8-7-|
|--8---8---8---8---8---8---8---8---8---8--7-6-5-|
|-----------------------------------------------|



|--------------------------------------|
|--------------------------------------|
|--6--------6--------6--------6--------|
|--6--6--6--6--6--6--6--6--6--6--6--6--|
|--4--4--4--4--4--4--4--4--4--4--4--4--|
|--------------------------------------|



|------------------------------------------|
|------------------------------------------|
|------------------------------------------|
|--7-7--7--7--7-7--6-5-7-7--7--7--7-7--6-5-|
|--5-5--5--5--5-5--5-5-5-5--5--5--5-5--5-5-|
|------------------------------------------|



|------------------------------------------|
|------------------------------------------|
|------------------------------------------|
|--7-7--7--7--7-7--6-5-7-7--7--7--7-7--6-5-|
|--5-5--5--5--5-5--5-5-5-5--5--5--5-5--5-5-|
|------------------------------------------|



|------------------------------------------|
|------------------------------------------|
|------------------------------------------|
|--9-9--9--9--9-9--8-7-9-9--9--9--9-9--8-7-|
|--7-7--7--7--7-7--7-7-7-7--7--7--7-7--7-7-|
|------------------------------------------|



|------------------------------------------|
|------------------------------------------|
|------------------------------------------|
|--9-9--9--9--9-9--8-7-9-9--9--9--9-9--8-7-|
|--7-7--7--7--7-7--7-7-7-7--7--7--7-7--7-7-|
|------------------------------------------|



|------------------------------------------|
|------------------------------------------|
|------------------------------------------|
|--9-9--9--9--9-9--8-7-9-9--9--9--9-9--8-7-|
|--7-7--7--7--7-7--7-7-7-7--7--7--7-7--7-7-|
|------------------------------------------|



|------------------------------------------|
|------------------------------------------|
|------------------------------------------|
|--9-9--9--9--9-9--8-7-9-9--9--9--9-9--8-7-|
|--7-7--7--7--7-7--7-7-7-7--7--7--7-7--7-7-|
|------------------------------------------|



|------------------------------------------|
|------------------------------------------|
|------------------------------------------|
|--9-9--9--9--9-9--8-7-9-9--9--9--9-9--8-7-|
|--7-7--7--7--7-7--7-7-7-7--7--7--7-7--7-7-|
|------------------------------------------|



|------------------------------------------|
|------------------------------------------|
|------------------------------------------|
|--9-9--9--9--9-9--8-7-9-9--9--9--9-9--8-7-|
|--7-7--7--7--7-7--7-7-7-7--7--7--7-7--7-7-|
|------------------------------------------|



|------------------------------------------|
|------------------------------------------|
|------------------------------------------|
|--9-9--9--9--9-9--8-7-9-9--9--9--9-9--8-7-|
\--7-7--7--7--7-7--7-7-7-7--7--7--7-7--7-7-|
|------------------------------------------|



|------------------------------------------|
|------------------------------------------|
|------------------------------------------|
|--9-9--9--9--9-9--8-7-9-9--9--9--9-9--8-7-|
|--7-7--7--7--7-7--7-7-7-7--7--7--7-7--7-7-|
|------------------------------------------|



|------------------------------------------|
|------------------------------------------|
|------------------------------------------|
|--9-9--9--9--9-9--8-7-9-9--9--9--9-9--8-7-|
|--7-7--7--7--7-7--7-7-7-7--7--7--7-7--7-7-|
|------------------------------------------|



|------------------------------------------|
|------------------------------------------|
|------------------------------------------|
|--9-9--9--9--9-9--8-7-9-9--9--9--9-9--9-9-|
|--7-7--7--7--7-7--7-7-7-7--7--7--7-7--7-7-|
|------------------------------------------|


Songtekst:

In sleep he sang to me
in dreams he came
that voice which calls to me
and speaks my name

And do I dream again?
For now I find
the Phantom of the Opera is there
inside my mind

Sing once again with me
our strange duet
My power over you
grows stronger yet

And though you turn from me,
to glance behind,
the Phantom of the Opera is there
inside your mind

Those who have seen your face
draw back in fear
I am the mask you wear
It's me they hear

Your spirit and your voice,
in one combined:
the Phantom of the Opera is there
inside your mind



In all your fantasies,
you always knew
that man and mystery
were both in you

And in this labyrinth,
where night is blind,
the Phantom of the Opera is there
inside my mind

Sing, my Angel of Music!

He's there, the Phantom of the Opera

ProTabs promo.jpg

Onbeperkt en gratis toegang tot alle 25.000
Tabs & Chords en direct meespelen met

Artiest Liedje

...

Gitaarakkoorden nightwish - Phantom of the opera

Dankzij de bladmuziek op deze pagina wordt het een stuk makkelijker om met de gitaar mee te spelen met Phantom of the opera van nightwish De ProTabs van Gitaartabs worden door onze professionele gitaardocenten samengesteld. De tabs en chords zijn door leden zelf geplaatst. Deze undefined van nightwish met Phantom of the opera is voor je geschreven door [b]lack[a]ngel

Tabs & Chords van nightwish - Phantom of the opera

Bij de ProTabs delen we niet alleen de tablatuur maar ook de speelwijze van Phantom of the opera Met een beetje gitaar ervaring moet je dit gitaarliedje zeker kunnen spelen, maar als het niet lukt zijn we er altijd om je te helpen. Door een gratis account aan te maken krijg je niet alleen toegang tot deze tab ,akkoorden & tabs van Phantom of the opera maar kun je ook onbeperkt meespelen met een van de meer dan 25.000 andere tabs & chords in onze database.

Plaats opmerking

Verstuur

Beoordeel deze song

Rate UsDon’t love itNot greatGoodGreatLove itRate Us

Bedankt voor je beoordeling!