Planet hell

Gitaarliedjes, tabs & akkoorden (chords) Planet hell - nightwish

Songtype: Tab

arrow&v

Markeer als favoriet

Favoriet

Gemarkeerd als favoriet

Capo:

0

nightwish

nightwish

Song
Album
Categorie

Planet hell

niet bekend

Downloads
764
Niveau
3
Geplaatst door
les paul
ProTabs-promo.jpg

Nightwish - Planet hell

stemming:een hele stap naar beneden

0.58 intro / 1st verse (2x spelen)

d:-------------------------------------------------------------------
A:-------------------------------------------------------------------
F:-----------------------------------------------------------5-------
C:-2--2-2-2--2-2-2--7-2--2-2-2--2-2-2--7-2--2-2-2--2-2-2---5-5-7-9---
G:-2--2-2-2--2-2-2--7-2--2-2-2--2-2-2--7-2--2-2-2--2-2-2---5-3-7-9---
D:-0--0-0-0--0-0-0--5-0--0-0-0--0-0-0--5-0--0-0-0--0-0-0---3---5-7---
. . . . . . . . . . . . . . . . . .

d:-------------------------------------------------------------------
A:-------------------------------------------------------------------
F:-------------------------------------------------------3---2-------
C:-2--2-2-2--2-2-2--7-2--2-2-2--5/8--2--2-2-2--2-2-2---3-3-5-2-------
G:-2--2-2-2--2-2-2--7-2--2-2-2--5/8--2--2-2-2--2-2-2---3-1-5-0-------
D:-0--0-0-0--0-0-0--5-0--0-0-0--3/6--0--0-0-0--0-0-0---3---5---------
. . . . . . . . . . . . . . .


1.24 2nd verse by Tarja (2x spelen)
d:-------------------------------------------------------------------
A:-------------------------------------------------------------------
F:-------------------------------------------------------------------
C:-----------------------------------------------------------8---7---
G:-5--5-5-5--5-5-5--3/5--5-5-5--5-5-5--3/5--5-5-5--5-5-5---8-6-7-5---
D:-3--3-3-3--3-3-3--1/3--3-3-3--3-3-3--1/3--3-3-3--3-3-3---6---5-----
. . . . . . . . . . . . . . . . . .
1.38
d:----------------------------------------------------------------
A:----------------------------------------------------------------
F:-5---5----------------------------------------------------------
C:-5---5---5---5---4----------------------------------3-----------
G:-3---3---5---5---2-2-2-2-2-2-2-2...-5-5-5-5-5-5-5-5-3-----------
D:---------3---3----------------------3-3-3-3-3-3-3-3-1-----------
. . . . . . .... . . . . . . . ....

Verse 1 / Verse 2

2.31 chorus
d:-------------------------------------------------------------------
A:-------------------------------------------------------------------
F:-------------------------------------------------------------------
C:--5-8---10--118---8118---889-10---1110----8118---6-----------------
G:--5-8---10--118---8118---889-10---1110----8118---6-----------------
D:--3-6---88889-888869-6666669-8-8889-8-888669-6-664-----------------
... ... ... ... ... . ..
d:-------------------------------------------------------------------
A:-------------------------------------------------------------------
F:-------------------------------------------------------------------
C:--------------------------------------------------------8-8-8--7---
G:-5--5-5-5--5-5-5--3/5—-5-5-5--5-5-5--3/5--5-5-5--5-5-5--8-8-8--7---
D:-3--3-3-3--3-3-3--1/3--3-3-3--3-3-3--1/3--3-3-3--3-3-3--6-6-6--5---
. . . . . . . . . . . . . . . . . .




d:----------------------------------------------------------------
B:----------------------------------------------------------------
G:----------------------------------------------------------------
C:-----10--118---8118---889-10---1110----8118---6-----------------
G:-----10--118---8118---889-10---1110----8118---6-----------------
D:-----88889-888869-6666669-8-8889-8-888669-6-664-----------------
... ... ... ... ... . ..
d:-------------------------------------------------------------------
A:-------------------------------------------------------------------
F:-------------------------------------8-8--8------------------------
C:-------------------------------------8-8--8--8-8--8--7-------------
G:-5--5-5-5--5-5-5--3/5--5-5-5--5-5-5--6-6--6--8-8--8--7-------------
D:-3--3-3-3--3-3-3--1/3--3-3-3--3-3-3----------6-6--6--5-------------
. . . . . . . . . . . .
2.58
d:-------------------------------------------------------------------
C:-------------------------------------------------------------------
G:----------------------------------------------------4*-------------
C:-------------------------------------------------------------------
G:--3/5--5-5--3-2-3---------------3/5--5-5--3-2-3--3-----------------
D:--1/3--3-3--1-0-1--3-1-3-5-6-8--1/3--3-3--1-0-1--1-----------------


3.13 onder keyboard solo (2x spelen)
d:-------------------------------------------------------------------
A:-------------------------------------------------------------------
F:--5-------------------------------------5--------------------------
C:--5---------5-5-5--5--5-5-5--5----------5------8--3----------------
G:--333333....5-5-5--5--5-5-5--5----------333333-8--3----------------
D:------------3-3-3--3--3-3-3--33333333...-------6--1----------------
......... .......... .....
3.38
d:-------------------------------------------------------------------
A:-------------------------------------------------------------------
F:---------7/8--7/8----------------------------7/8--7/8--------------
C:-------5-7/8--7/8-----------------------5-5--7/8--7/8--------------
G:--5555-5-5/6--5/6-----------------------5-5--5/6--5/6--8-6-5-6-5---
D:--3333-3-----------4-3-1--4-3-1--1-3-4--333------------------------
..... .
d:-------------------------------------------------------------------
A:-------------------------------------------------------------------
F:---------7/8--7/8----------------------------7/8--7/8--------------
C:-------5-7/8--7/8-----------------------5-5--7/8--7/8--------------
G:--5555-5-5/6--5/6-----------------------5-5--5/6--5/6--8-6-5-6-5---
D:--3333-3-----------4-3-1--4-3-1--1-3-4--333------------------------
..... .

3.51 Chorus

4.18 until the end
d:-------------------------------------------------------------------
A:-------------------------------------------------------------------
F:------------------------------------------------------------------
C:-------------------------------------------------------------------
G:--3333333333333333333333333333333----------------------------------
D:-------------------------------------------------------------------

ProTabs promo.jpg

Onbeperkt en gratis toegang tot alle 25.000
Tabs & Chords en direct meespelen met

Artiest Liedje

...

Gitaarakkoorden nightwish - Planet hell

Dankzij de bladmuziek op deze pagina wordt het een stuk makkelijker om met de gitaar mee te spelen met Planet hell van nightwish De ProTabs van Gitaartabs worden door onze professionele gitaardocenten samengesteld. De tabs en chords zijn door leden zelf geplaatst. Deze undefined van nightwish met Planet hell is voor je geschreven door les paul

Tabs & Chords van nightwish - Planet hell

Bij de ProTabs delen we niet alleen de tablatuur maar ook de speelwijze van Planet hell Met een beetje gitaar ervaring moet je dit gitaarliedje zeker kunnen spelen, maar als het niet lukt zijn we er altijd om je te helpen. Door een gratis account aan te maken krijg je niet alleen toegang tot deze tab ,akkoorden & tabs van Planet hell maar kun je ook onbeperkt meespelen met een van de meer dan 25.000 andere tabs & chords in onze database.

Plaats opmerking

Beoordeel deze song

Rate UsDon’t love itNot greatGoodGreatLove itRate Us

Bedankt voor je beoordeling!