Rape me

Gitaarliedjes, tabs & akkoorden (chords) Rape me - nirvana

Songtype: Tab

arrow&v

Markeer als favoriet

Favoriet

Gemarkeerd als favoriet

Capo:

0

nirvana

nirvana

Song
Album
Categorie

Rape me

Downloads
2395
Niveau
2
in utero

Geplaatst door
niels
ProTabs-promo.jpg

x A5 C5 E5 G5 G5' C#5 F5 G#5
|-x---x-----------x-----------------
|-x---x-------x---x-----------------
|-x---2---5---x---0-------6---------
|-x---2---5---2---0---5---6---3---6-
|-x---0---3---2---x---5---4---3---6-
|-x---x-------0---3---3-------1---4-


A5 C5 E5 G5 A5 C5 [E5]\ [G5]\\\\\\
1:----------------------------- 1:----------------------x-x-x-x-x--x-x-----------------
2:----------------------------- 2:----------------x--x--x-x-x-x-x--x-x----------------
3:---2-------5----------------- (x3) + 3:---2-------5----x--x--0-0-0-0-0--0-0-------
4:---2-----5-5-5---2-------0--- 4:---2-----5-5-5--2--2--0-0-0-0-0--0-0---
5:-0---0-3---------2-----0-0-0- 5:-0---0-3--------2--2--x-x-x-x-x--x-x-----------
6:---------------0---0-3------- 6:----------------0--0--3-3-3-3-3--3-3------------

ProTabs promo.jpg

Onbeperkt en gratis toegang tot alle 25.000
Tabs & Chords en direct meespelen met

Artiest Liedje

...

Gitaarakkoorden nirvana - Rape me

Dankzij de bladmuziek op deze pagina wordt het een stuk makkelijker om met de gitaar mee te spelen met Rape me van nirvana De ProTabs van Gitaartabs worden door onze professionele gitaardocenten samengesteld. De tabs en chords zijn door leden zelf geplaatst. Deze undefined van nirvana met Rape me is voor je geschreven door niels

Tabs & Chords van nirvana - Rape me

Bij de ProTabs delen we niet alleen de tablatuur maar ook de speelwijze van Rape me Met een beetje gitaar ervaring moet je dit gitaarliedje zeker kunnen spelen, maar als het niet lukt zijn we er altijd om je te helpen. Door een gratis account aan te maken krijg je niet alleen toegang tot deze tab ,akkoorden & tabs van Rape me maar kun je ook onbeperkt meespelen met een van de meer dan 25.000 andere tabs & chords in onze database.

Plaats opmerking

Verstuur

Beoordeel deze song

Rate UsDon’t love itNot greatGoodGreatLove itRate Us

Bedankt voor je beoordeling!