Just a girl

Gitaarliedjes, tabs & akkoorden (chords) Just a girl - no doubt

Songtype: Tab

arrow&v

Markeer als favoriet

Favoriet

Gemarkeerd als favoriet

Capo:

0

no doubt

no doubt

Song
Album
Categorie

Just a girl

Downloads
857
Niveau
2

Geplaatst door
sander
ProTabs-promo.jpg

Intro/Main Riff
E|-------------------------------------------|
B|-------------------------------------------|
G|-------------------------------------------|
D|-----7------------------------------------|
A|--5----------5--------5-----7----------|
E|--------7-7-----6-6-----5-------------|

CHORUS:
E|-----------------------------------------------------------------------------|
B|-----------------------------------------------------------------------------|
G|-----------------------------------------------------------------------------|
D|-9-9-9-9-9-9---7-7-7-7-7-7---5-5-5-5-5-7--7-7-7-7-7-7|
A|-9-9-9-9-9-9---7-7-7-7-7-7---5-5-5-5-5-7--7-7-7-7-7-7|
D|-7-7-7-7-7-7---5-5-5-5-5-5---3-3-3-3-3-3--5-5-5-5-5-5|

Solo:

E|---------------------------------------------------------------------------------------------------------|
B|---------------------------------------------------------------------------------------------------------|
G|-------4---7---6---4-------------------------------4---7---6---4---------------------------------|
D|----4--------------------4----------------4-----4-----------------------4-----------------4--------|
A|------------------------------7----5--7--------------------------------------7----5--7--------2---|
E|---------------------------------------------------------------------------------------------------------|

ProTabs promo.jpg

Onbeperkt en gratis toegang tot alle 25.000
Tabs & Chords en direct meespelen met

Artiest Liedje

...

Gitaarakkoorden no doubt - Just a girl

Dankzij de bladmuziek op deze pagina wordt het een stuk makkelijker om met de gitaar mee te spelen met Just a girl van no doubt De ProTabs van Gitaartabs worden door onze professionele gitaardocenten samengesteld. De tabs en chords zijn door leden zelf geplaatst. Deze undefined van no doubt met Just a girl is voor je geschreven door sander

Tabs & Chords van no doubt - Just a girl

Bij de ProTabs delen we niet alleen de tablatuur maar ook de speelwijze van Just a girl Met een beetje gitaar ervaring moet je dit gitaarliedje zeker kunnen spelen, maar als het niet lukt zijn we er altijd om je te helpen. Door een gratis account aan te maken krijg je niet alleen toegang tot deze tab ,akkoorden & tabs van Just a girl maar kun je ook onbeperkt meespelen met een van de meer dan 25.000 andere tabs & chords in onze database.

Plaats opmerking

Verstuur

Beoordeel deze song

Rate UsDon’t love itNot greatGoodGreatLove itRate Us

Bedankt voor je beoordeling!