Deze vuist op deze vuist

Gitaarliedjes, tabs & akkoorden (chords) Deze vuist op deze vuist - ome willem

Songtype: Tab

arrow&v

Markeer als favoriet

Favoriet

Gemarkeerd als favoriet

Capo:

0

ome willem

ome willem

Song
Album
Categorie

Deze vuist op deze vuist

Downloads
3948
Niveau
1

Geplaatst door
lot
ProTabs-promo.jpg


deze vuist op deze vuist,

-0-2-4-2-0-2-4------------------
-----------------------------------
-----------------------------------
-----------------------------------
-----------------------------------
-----------------------------------




deze vuist op deze vuist,

-2-4-5-4-2-4-5------------------
-----------------------------------
-----------------------------------
-----------------------------------
-----------------------------------
-----------------------------------


deze vuist op deze vuist,

-4-5-7-5-4-5-7------------------
-----------------------------------
-----------------------------------
-----------------------------------
-----------------------------------
-----------------------------------



en zo klim ik naar boven

-7-9-9-7-4-2-0------------------
-----------------------------------
-----------------------------------
-----------------------------------
-----------------------------------
-----------------------------------

ProTabs promo.jpg

Onbeperkt en gratis toegang tot alle 25.000
Tabs & Chords en direct meespelen met

Artiest Liedje

...

Gitaarakkoorden ome willem - Deze vuist op deze vuist

Dankzij de bladmuziek op deze pagina wordt het een stuk makkelijker om met de gitaar mee te spelen met Deze vuist op deze vuist van ome willem De ProTabs van Gitaartabs worden door onze professionele gitaardocenten samengesteld. De tabs en chords zijn door leden zelf geplaatst. Deze undefined van ome willem met Deze vuist op deze vuist is voor je geschreven door lot

Tabs & Chords van ome willem - Deze vuist op deze vuist

Bij de ProTabs delen we niet alleen de tablatuur maar ook de speelwijze van Deze vuist op deze vuist Met een beetje gitaar ervaring moet je dit gitaarliedje zeker kunnen spelen, maar als het niet lukt zijn we er altijd om je te helpen. Door een gratis account aan te maken krijg je niet alleen toegang tot deze tab ,akkoorden & tabs van Deze vuist op deze vuist maar kun je ook onbeperkt meespelen met een van de meer dan 25.000 andere tabs & chords in onze database.

Plaats opmerking

Verstuur

Beoordeel deze song

Rate UsDon’t love itNot greatGoodGreatLove itRate Us

Bedankt voor je beoordeling!