I don't know how to love him v1

Gitaarliedjes, tabs & akkoorden (chords) i don't know how to love him v1 - undefined

Songtype: Tab

arrow&v

Markeer als favoriet

Favoriet

Gemarkeerd als favoriet

Capo:

0

Song
Album
Categorie

i don't know how to love him v1

Downloads
87
Niveau
2
jesus christ superstar

Geplaatst door
shanna
ProTabs-promo.jpg

Beginstukje
Close your eyes Close your eyes and forget all about us tonight

e:-------------------------------------------|
a:-------------------------------------------|
d:-------------------------------------------|
g:-------------------------------------------|
b:4-4------------------------------4-2-4|
e:-----6-4-2-4-2-1-2-4-2-1---------|

Couplet 1:
e:---------------------------------------------------|-----------------------------------------------|
a:---------------------------------------------------|-----------------------------------------------|
d:---------------------------------------------------|-----------------------------------------------|
g:-------------------------------------------------3|-------3--------------------------------------|
b:----------4-------------------------------3-1---|-------------------4-4-4----4---------4---|
e;3-4-3-1-8-6-6-4-3-1-3-4-3-1-1-------|3-3-1-3-4-6-6-------6-6-4-3-1----1|

Couplet 2:
e:---------------------------------------------------|--------------------------------------------------------|
a:---------------------------------------------------|--------------------------------------------------------|
d:---------------------------------------------------|--------------------------------------------------------|
g:-------------------------------------------------3|-------3-----------------------------------------------|
b:----------4-------------------------------3-1---|-------------------4-4-----4---------4---4-4-3-4|
e;3-4-3-1-8-6-6-4-3-1-3-4-3-1-1-------|3-3-1-3-4-6-6-------6-6-4-3-1----1---------|

Refrein
e:---------------------------------------------------------------------------------|--------------|
a:---------------------------------------------------------------------------------|--------------|
d:---------------------------------------------------------------------------------|--------------|
g:---------------------------------------------------------------------------------|--------------|
b:4-4-1-4--------3----------4------------------------------------------------|------4------|
e:------------1-1-1-1-3-3-3-3-4-4-4-3-4-6-6-6-6--9-9-8-6-4-6|4-3----1-1|

Couplet 3:
e:---------------------------------------------------|--------------------------------------------------------|
a:---------------------------------------------------|--------------------------------------------------------|
d:---------------------------------------------------|--------------------------------------------------------|
g:-------------------------------------------------3|-------3-----------------------------------------------|
b:----------4-------------------------------3-1---|---------------------4--------4--------4--4-4-3-4|
e;3-4-3-1-8-6-6-4-3-1-3-4-3-1-1-------|3-3-1-3-4-6-6----6-8-6-4-3-1--1-----------|

Instrumentaal

Onderdeel van het refrein
e:------------------------------------------|
a:------------------------------------------|
d:------------------------------------------|
g:------------------------------------------|
b----------------------------------4-------|
e:6-6-6--9-9-8-6-4-6-4-3----1-1|

Couplet 4:
e:---------------------------------------------------|--------------------------------------------------------|--------------------------|
a:---------------------------------------------------|--------------------------------------------------------|--------------------------|
d:---------------------------------------------------|--------------------------------------------------------|--------------------------|
g:-------------------------------------------------3|-------3-----------------------------------------------|--------------------------|
b:----------4-------------------------------3-1---|---------------------4--------4--------4--4-4-3-4|--4-4-4-4-----4-4-4|
e;3-4-3-1-8-6-6-4-3-1-3-4-3-1-1-------|3-3-1-3-4-6-6----6-8-6-4-3-1--1-----------|3--1-------3-1--------|

ProTabs promo.jpg

Onbeperkt en gratis toegang tot alle 25.000
Tabs & Chords en direct meespelen met

Artiest Liedje

...

Gitaarakkoorden undefined - i don't know how to love him v1

Dankzij de bladmuziek op deze pagina wordt het een stuk makkelijker om met de gitaar mee te spelen met i don't know how to love him v1 van undefined De ProTabs van Gitaartabs worden door onze professionele gitaardocenten samengesteld. De tabs en chords zijn door leden zelf geplaatst. Deze undefined van undefined met i don't know how to love him v1 is voor je geschreven door shanna

Tabs & Chords van undefined - i don't know how to love him v1

Bij de ProTabs delen we niet alleen de tablatuur maar ook de speelwijze van i don't know how to love him v1 Met een beetje gitaar ervaring moet je dit gitaarliedje zeker kunnen spelen, maar als het niet lukt zijn we er altijd om je te helpen. Door een gratis account aan te maken krijg je niet alleen toegang tot deze tab ,akkoorden & tabs van i don't know how to love him v1 maar kun je ook onbeperkt meespelen met een van de meer dan 25.000 andere tabs & chords in onze database.

Plaats opmerking

Verstuur

Beoordeel deze song

Rate UsDon’t love itNot greatGoodGreatLove itRate Us

Bedankt voor je beoordeling!