Mojito song

Gitaarliedjes, tabs & akkoorden (chords) Mojito song - onbekend

Songtype: Tab

arrow&v

Markeer als favoriet

Favoriet

Gemarkeerd als favoriet

Capo:

0

onbekend

onbekend

Song
Album
Categorie

Mojito song

Downloads
225
Niveau
2
Geplaatst door
sam1995
ProTabs-promo.jpg

The mojito song
E-----------------------------------------------------------
B----------------------------------------------------------
G----------------------------------------------------------
D--3/5--3/5--3/5--3/5--3/5--3/5--3/5------------------------------------------------
A--3/5--3/5--3/5--3/5--3/5--3/5--3/5------------------------------------------------
E--1/3--1/3--1/3--1/3--1/3--1/3--1/3-----------------------------------------------



E----------------------------------------------------------------------------
B----------------------------------------------------------------------------
G---------------------------------------------------------------------------
D--3--5--5--6--8--8--6--5--5--5---6--5--------------------------------
A--3--5--5--6--8--8--6--5--5--5---6--5--------------------------------
E--1--3--3--4--6--6--4--3--3--3---4--3--------------------------------



E-----------------------------------------------------------
B----------------------------------------------------------
G----------------------------------------------------------
D--3/5--3/5--3/5-----------------------------------
A--3/5--3/5--3/5----------------------------------
E--1/3--1/3--1/3-----------------------------------

E----------------------------------------------------------------------------
B----------------------------------------------------------------------------
G---------------------------------------------------------------------------
D--3--5--5--6--8--8--6--5--5--5---6--5--------------------------------
A--3--5--5--6--8--8--6--5--5--5---6--5--------------------------------
E--1--3--3--4--6--6--4--3--3--3---4--3--------------------------------


succes,

sam1995


ProTabs promo.jpg

Onbeperkt en gratis toegang tot alle 25.000
Tabs & Chords en direct meespelen met

Artiest Liedje

...

Gitaarakkoorden onbekend - Mojito song

Dankzij de bladmuziek op deze pagina wordt het een stuk makkelijker om met de gitaar mee te spelen met Mojito song van onbekend De ProTabs van Gitaartabs worden door onze professionele gitaardocenten samengesteld. De tabs en chords zijn door leden zelf geplaatst. Deze undefined van onbekend met Mojito song is voor je geschreven door sam1995

Tabs & Chords van onbekend - Mojito song

Bij de ProTabs delen we niet alleen de tablatuur maar ook de speelwijze van Mojito song Met een beetje gitaar ervaring moet je dit gitaarliedje zeker kunnen spelen, maar als het niet lukt zijn we er altijd om je te helpen. Door een gratis account aan te maken krijg je niet alleen toegang tot deze tab ,akkoorden & tabs van Mojito song maar kun je ook onbeperkt meespelen met een van de meer dan 25.000 andere tabs & chords in onze database.

Plaats opmerking

Beoordeel deze song

Rate UsDon’t love itNot greatGoodGreatLove itRate Us

Bedankt voor je beoordeling!