Original prankster

Gitaarliedjes, tabs & akkoorden (chords) original prankster - undefined

Songtype: Tab

arrow&v

Markeer als favoriet

Favoriet

Gemarkeerd als favoriet

Capo:

0

Song
Album
Categorie

original prankster

Downloads
104
Niveau
2

Geplaatst door
fabian94
ProTabs-promo.jpg


Let op de rusten!!!


Rust 5 seconden Rust 4 seconden Tussen 0 en 5 1 rust
e-------------------------------------------------------------------------------------
b-------------------------------------------------------------------------------------
g-------------------------------------------------------------------------------------
d-------------------------------------------------------------------------------------
a-----0-0-3-0-0-------------------0-0-3-0-7-0-3-0---------------------0-0-3-0-0-5-----
e-------------------------------------------------------------------------------------
4 seconden rust (3x) en de de 4 de keer half
e-------------------------------------------------------------------------------------
b-------------------------------------------------------------------------------------
g-------------------------------------------------------------------------------------
d-------------------------------------------------------------------------------------
a-------------------0-0-3-0-7-0-0-5--6--0-5-0-3-5-5-3-----0-0-3-0-7-0-6-5-0-5-0-3-5-3-
e-------------------------------------------------------------------------------------
(palmmuted 3x) (palmmuted)
e-------------------------------------------------------------------------------------
b-------------------------------------------------------------------------------------
g---------------------------------------------------9-9-9-9-9-9-9-9-------------------
d---------------------------------------5-5-5-5-5-5-9-9-9-9-9-9-9-9-------------------
a---------------------------------------5-5-5-5-5-5-7-7-7-7-7-7-7-7-------------------
e ---0-0-3-0-7-0-6-5-0-5-0-3-5-3--------3-3-3-3-3-3-0-0-0-0-0-0-0-0-------------------

5 keer palmmuted 8 keer
e-------------------------------------------------------------------------------------
b-------------------------------------------------------------------------------------
g---2--5--9-8-7-7-5-7--5-----------------5-------------------------9------------------
d---2--5--9-8-7-7-5-7--5-----------------5-------------------------9------------------
a---0--3--7-6-5-5-3-5--3-----------------3-------------------------7------------------
e------------------------------------------------------------------0------------------
3 keer
a-------------------------------------------------------------------------------------
b-------------------------------------------------------------------------------------
g----2-2-2-2--7-7-12-12---------------12------12------12--12--12--12--12--13----------
d----2-2-2-2--7-7-12-12---------------12--12--12-12---12--12--12--12--12--13----------
a----0-0-0-0--5-5-10-10---------------10--12--10-12---10--10--10--10--10--11----------
e-----------------------------------------10-----10-----------------------------------

ProTabs promo.jpg

Onbeperkt en gratis toegang tot alle 25.000
Tabs & Chords en direct meespelen met

Artiest Liedje

...

Gitaarakkoorden undefined - original prankster

Dankzij de bladmuziek op deze pagina wordt het een stuk makkelijker om met de gitaar mee te spelen met original prankster van undefined De ProTabs van Gitaartabs worden door onze professionele gitaardocenten samengesteld. De tabs en chords zijn door leden zelf geplaatst. Deze undefined van undefined met original prankster is voor je geschreven door fabian94

Tabs & Chords van undefined - original prankster

Bij de ProTabs delen we niet alleen de tablatuur maar ook de speelwijze van original prankster Met een beetje gitaar ervaring moet je dit gitaarliedje zeker kunnen spelen, maar als het niet lukt zijn we er altijd om je te helpen. Door een gratis account aan te maken krijg je niet alleen toegang tot deze tab ,akkoorden & tabs van original prankster maar kun je ook onbeperkt meespelen met een van de meer dan 25.000 andere tabs & chords in onze database.

Plaats opmerking

Verstuur

Beoordeel deze song

Rate UsDon’t love itNot greatGoodGreatLove itRate Us

Bedankt voor je beoordeling!