Bekende riffs(easy)

Gitaarliedjes, tabs & akkoorden (chords) Bekende riffs(easy) - overig

Songtype: Tab

arrow&v

Markeer als favoriet

Favoriet

Gemarkeerd als favoriet

Capo:

0

overig

overig

Song
Album
Categorie

Bekende riffs(easy)

Downloads
92
Niveau
1
Geplaatst door
sam1995
ProTabs-promo.jpg

The mojito song
E-----------------------------------------------------------
B----------------------------------------------------------
G----------------------------------------------------------
D----------------------------------------------------------
A--0--2—-2—-3—-5--5--3--2--2—-2--3--2----------------------
E---------------------------------------------------------


Eye of the tiger
E-----------------------------------------------
B-----------------------------------------------
G-----------------------------------------------
D-----------------------------------------------
A--7--7--5--7--7--5--7--7--5--3-----------------
E--5--5--3--5--5--3--5--5--3--1-----------------

Like a g6

E-----------------------------------------------
B-----------------------------------------------
G-----------------------------------------------
D-----------------------------------------------
A-----------------------------------------------
E--0--0--0--9/12--7--8--8--8--8--7--------------

/ betekent slide

Smoke on the water (powerchords)
E--------------------------------------
B--------------------------------------
G--------------------------------------
D--3--6--8--3--6--9--8--3--6--8--6--3--
A--3--6--8--3--6--9--8--3--6--8--6--3--
E--1--4--6--1--4--7--6--1--4--6--4--1--





bekende baselines / riffs

laat een berichtje achter,

sam 1995





ProTabs promo.jpg

Onbeperkt en gratis toegang tot alle 25.000
Tabs & Chords en direct meespelen met

Artiest Liedje

...

Gitaarakkoorden overig - Bekende riffs(easy)

Dankzij de bladmuziek op deze pagina wordt het een stuk makkelijker om met de gitaar mee te spelen met Bekende riffs(easy) van overig De ProTabs van Gitaartabs worden door onze professionele gitaardocenten samengesteld. De tabs en chords zijn door leden zelf geplaatst. Deze undefined van overig met Bekende riffs(easy) is voor je geschreven door sam1995

Tabs & Chords van overig - Bekende riffs(easy)

Bij de ProTabs delen we niet alleen de tablatuur maar ook de speelwijze van Bekende riffs(easy) Met een beetje gitaar ervaring moet je dit gitaarliedje zeker kunnen spelen, maar als het niet lukt zijn we er altijd om je te helpen. Door een gratis account aan te maken krijg je niet alleen toegang tot deze tab ,akkoorden & tabs van Bekende riffs(easy) maar kun je ook onbeperkt meespelen met een van de meer dan 25.000 andere tabs & chords in onze database.

Plaats opmerking

Beoordeel deze song

Rate UsDon’t love itNot greatGoodGreatLove itRate Us

Bedankt voor je beoordeling!