Crazy trian intro

Gitaarliedjes, tabs & akkoorden (chords) Crazy trian intro - ozzy osbourne

Songtype: Tab

arrow&v

Markeer als favoriet

Favoriet

Gemarkeerd als favoriet

Capo:

0

ozzy osbourne

ozzy osbourne

Song
Album
Categorie

Crazy trian intro

Downloads
121
Niveau
1
Geplaatst door
thomas
ProTabs-promo.jpg

dit is geloof ik de goede.
het word telkens herhaalt:P

E|--2---2-----2------2-----2------------4-----------------4-----0--|
A|----------4------5-----4------2----0------0----2----0------------|
D|-------------------------------------------------------------------------|
G|-------------------------------------------------------------------------|
B|-------------------------------------------------------------------------|

ik heb zelf eerst een andere geleerd die was fout geloof ik XD
je hoort hier een distortion pendaal bij te gebruiken dacht ik maar ik gebruik zelf overdrive
Edit: nu gebruik gebruik in een multie effect: Rp90 van digitech

dat was:

E|---------------------------------------------------------------------------------------|
A|--2---2--------2---2----------2---2------------------4--------------4--0--2--|
D|-----------4--------------5--------------4--0--2--0------0--2--0--------------|
G|---------------------------------------------------------------------------------------|
D|---------------------------------------------------------------------------------------|
E|---------------------------------------------------------------------------------------|
het is niet de crazytrain intro maar klinkt wel leuk

btw: sorry als ik de noten balk ding verkeert omdoe ik weet niet precies hoe dat moet

ProTabs promo.jpg

Onbeperkt en gratis toegang tot alle 25.000
Tabs & Chords en direct meespelen met

Artiest Liedje

...

Gitaarakkoorden ozzy osbourne - Crazy trian intro

Dankzij de bladmuziek op deze pagina wordt het een stuk makkelijker om met de gitaar mee te spelen met Crazy trian intro van ozzy osbourne De ProTabs van Gitaartabs worden door onze professionele gitaardocenten samengesteld. De tabs en chords zijn door leden zelf geplaatst. Deze undefined van ozzy osbourne met Crazy trian intro is voor je geschreven door thomas

Tabs & Chords van ozzy osbourne - Crazy trian intro

Bij de ProTabs delen we niet alleen de tablatuur maar ook de speelwijze van Crazy trian intro Met een beetje gitaar ervaring moet je dit gitaarliedje zeker kunnen spelen, maar als het niet lukt zijn we er altijd om je te helpen. Door een gratis account aan te maken krijg je niet alleen toegang tot deze tab ,akkoorden & tabs van Crazy trian intro maar kun je ook onbeperkt meespelen met een van de meer dan 25.000 andere tabs & chords in onze database.

Plaats opmerking

Beoordeel deze song

Rate UsDon’t love itNot greatGoodGreatLove itRate Us

Bedankt voor je beoordeling!