Goodbye to romance

Gitaarliedjes, tabs & akkoorden (chords) Goodbye to romance - ozzy osbourne

Songtype: Tab

arrow&v

Markeer als favoriet

Favoriet

Gemarkeerd als favoriet

Capo:

0

ozzy osbourne

ozzy osbourne

Song
Album
Categorie

Goodbye to romance

Downloads
754
Niveau
3

Geplaatst door
rick
ProTabs-promo.jpg

|---------0-|-2h3-2h3p2---2p0---0-|---0--------------0-||
|-------3---|-----------5-----3---|-3---2h3p2---2--3---||
|-----------|---------------------|-----------4--------||
|-----------|---------------------|--------------------||
|-----------|---------------------|--------------------||
|-----------|---------------------|--------------------||



|-------5-(5)--^5--|-^9----^12----|-------0-(0)-----------|----------------|
|-7------------^5--|-^7----^10----|-3---3-------3-------2h|=3--2--0--2h3h5-|
|-6---6--------^4--|-^7----^-9----|-0-0-----------0h2h4---|-------0--------|
|---7----------^4--|-^7----^11----|-----------------------|----------------|
|-5----------------|-------^-9----|-----------------------|----------------|
|------------------|--------------|-3---------------------|----------------|


|------5-(5)-9p5-----|-9---9s12----------|------0-(0)------------|
|-7--7-----------7---|-7--------10-(10)--|-3--3-------3-0h2h3-2--|
|-6----------------7-|-7---------9--(9)--|-0------------0h2h4----|
|--------------------|-7--------11-(11)--|-0---------------------|
|-5------------------|-----------9--(9)--|-----------------------|
|--------------------|-------------------|-3---------------------|

ik ben zelf nog aan het oefenen maar ik kan hem nog niet:P rick

ProTabs promo.jpg

Onbeperkt en gratis toegang tot alle 25.000
Tabs & Chords en direct meespelen met

Artiest Liedje

...

Gitaarakkoorden ozzy osbourne - Goodbye to romance

Dankzij de bladmuziek op deze pagina wordt het een stuk makkelijker om met de gitaar mee te spelen met Goodbye to romance van ozzy osbourne De ProTabs van Gitaartabs worden door onze professionele gitaardocenten samengesteld. De tabs en chords zijn door leden zelf geplaatst. Deze undefined van ozzy osbourne met Goodbye to romance is voor je geschreven door rick

Tabs & Chords van ozzy osbourne - Goodbye to romance

Bij de ProTabs delen we niet alleen de tablatuur maar ook de speelwijze van Goodbye to romance Met een beetje gitaar ervaring moet je dit gitaarliedje zeker kunnen spelen, maar als het niet lukt zijn we er altijd om je te helpen. Door een gratis account aan te maken krijg je niet alleen toegang tot deze tab ,akkoorden & tabs van Goodbye to romance maar kun je ook onbeperkt meespelen met een van de meer dan 25.000 andere tabs & chords in onze database.

Plaats opmerking

Verstuur

Beoordeel deze song

Rate UsDon’t love itNot greatGoodGreatLove itRate Us

Bedankt voor je beoordeling!