Iron man

Gitaarliedjes, tabs & akkoorden (chords) Iron man - ozzy osbourne

Songtype: Tab

arrow&v

Markeer als favoriet

Favoriet

Gemarkeerd als favoriet

Capo:

0

ozzy osbourne

ozzy osbourne

Song
Album
Categorie

Iron man

Downloads
187
Niveau
3
Geplaatst door
rick
ProTabs-promo.jpg

|------------|-----------0--|-------------------------------|
|------------|-----------0--|-------------------------------|
|------------|--------------|-/12-11-12-11-12s11-7----------|
|------------|-4S=7--7S9----|-/12-11-12-11-12s11-7----------|
|--------12-|-2S=5--5S7----|--------------------5-5-7-7----|
|------------|--------------|----------------------------x-|



|-------------0--|
|-------------0--|
|----------------|
|-4S=7--7-9------|
|-2S=5--5-7------|
|-----------0----|



~~~~
|----------------------------------------------------||---------------|
|----------------------------------------------------||---------------|
|-------------------------[9]b11r(9)b12-(9)-(9)-(9)-||---------------|
|-12S11-12S11-12s11-7-7-9----------------------------||-4S=7--7S9-9/--|
|-10S=9-10S=9-10s=9-5-5-7----------------------------||-2S=5--5S7-7/--|
|----------------------------------------------------||---------------|


|------------------------------------------|
|------------------------------------------|
|------------------------------------------|
|-/12S11-12S11-12s11S7-7-------------------|
|-/10S=9-10S=9-10s=9S5-5S7h8p7p5-5-7-5b5.5-|
|------------------------------------------|


~
|-----------0--|-----------------------------------|
|-----------0--|-----------------------------------|
|--------------|-----------------------------------|
|----7--7S9----|-12-11-12-11-12s11s7-7-------------|
|----5--5S7----|-10--9-10--9-10s=9s5-5-5h7-[7]----|
|-7------------|-----------------------------------|

ProTabs promo.jpg

Onbeperkt en gratis toegang tot alle 25.000
Tabs & Chords en direct meespelen met

Artiest Liedje

...

Gitaarakkoorden ozzy osbourne - Iron man

Dankzij de bladmuziek op deze pagina wordt het een stuk makkelijker om met de gitaar mee te spelen met Iron man van ozzy osbourne De ProTabs van Gitaartabs worden door onze professionele gitaardocenten samengesteld. De tabs en chords zijn door leden zelf geplaatst. Deze undefined van ozzy osbourne met Iron man is voor je geschreven door rick

Tabs & Chords van ozzy osbourne - Iron man

Bij de ProTabs delen we niet alleen de tablatuur maar ook de speelwijze van Iron man Met een beetje gitaar ervaring moet je dit gitaarliedje zeker kunnen spelen, maar als het niet lukt zijn we er altijd om je te helpen. Door een gratis account aan te maken krijg je niet alleen toegang tot deze tab ,akkoorden & tabs van Iron man maar kun je ook onbeperkt meespelen met een van de meer dan 25.000 andere tabs & chords in onze database.

Plaats opmerking

Beoordeel deze song

Rate UsDon’t love itNot greatGoodGreatLove itRate Us

Bedankt voor je beoordeling!