Comfortably numb (solo)

Gitaarliedjes, tabs & akkoorden (chords) Comfortably numb (solo) - pink floyd

Songtype: Tab

arrow&v

Markeer als favoriet

Favoriet

Gemarkeerd als favoriet

Capo:

0

pink floyd

pink floyd

Song
Album
Categorie

Comfortably numb (solo)

Downloads
740
Niveau
2
Geplaatst door
mys11
ProTabs-promo.jpg

Solo
|-----10--14~~~--14b15r14----------------------------------------|
|---10----------------------15b17r15~~~--15--14--14--------------|
|-11------------------------------------------------14-----------|
|------------------------------------------------------14~12~~~-|
|----------------------------------------------------------------|
|----------------------------------------------------------------|

|-----10--14~~~--14b15r14--------------------------------------|
|---10----------------------15b17r15p14------------------------|
|-11------------------------------------14---------------------|
|------------------------------------------1412--11-—119-----|
|-----------------------------------------------------------12-|
|--------------------------------------------------------------|

|------------------------------------------------------------------|
|------------------------------------------------------------------|
|-9/12~~~--11------------119--9~~~7-7~~~--9p7---7-9-11b12--11b12-|
|--------------14--12~~-------------------------9------------------|
|------------------------------------------------------------------|
|------------------------------------------------------------------|

|-----14-15p14--12-----------------------------------------|
|---x---------------15p12----------------------------------|
|--x-----------------------12------------------------------|
|-x----------------------------12~~--109--9~~~--10p97~~~-|
|----------------------------------------------------------|
|----------------------------------------------------------|



|---------------------------------------------|
|---------------------------------------------|
|-9b12r9~~~---9b11r9b11r9p7-------------------|
|----------------------------------79/7—7~~~-|
|---------------------------------------------|
|---------------------------------------------|

ProTabs promo.jpg

Onbeperkt en gratis toegang tot alle 25.000
Tabs & Chords en direct meespelen met

Artiest Liedje

...

Gitaarakkoorden pink floyd - Comfortably numb (solo)

Dankzij de bladmuziek op deze pagina wordt het een stuk makkelijker om met de gitaar mee te spelen met Comfortably numb (solo) van pink floyd De ProTabs van Gitaartabs worden door onze professionele gitaardocenten samengesteld. De tabs en chords zijn door leden zelf geplaatst. Deze undefined van pink floyd met Comfortably numb (solo) is voor je geschreven door mys11

Tabs & Chords van pink floyd - Comfortably numb (solo)

Bij de ProTabs delen we niet alleen de tablatuur maar ook de speelwijze van Comfortably numb (solo) Met een beetje gitaar ervaring moet je dit gitaarliedje zeker kunnen spelen, maar als het niet lukt zijn we er altijd om je te helpen. Door een gratis account aan te maken krijg je niet alleen toegang tot deze tab ,akkoorden & tabs van Comfortably numb (solo) maar kun je ook onbeperkt meespelen met een van de meer dan 25.000 andere tabs & chords in onze database.

Plaats opmerking

Beoordeel deze song

Rate UsDon’t love itNot greatGoodGreatLove itRate Us

Bedankt voor je beoordeling!