Eclipse

Gitaarliedjes, tabs & akkoorden (chords) Eclipse - pink floyd

Songtype: Tab

arrow&v

Markeer als favoriet

Favoriet

Gemarkeerd als favoriet

Capo:

0

pink floyd

pink floyd

Song
Album
Categorie

Eclipse

Downloads
453
Niveau
2
Geplaatst door
rog3r
ProTabs-promo.jpg

||-------2------|----------2--|------2------|--0----------|
||o----------3--|-------------|-------------|------3------|
||--------------|--2----------|----------2--|----------2--|
||---0----------|------0------|-------------|-------------|
||o-------------|-------------|--3----------|-------------|
||--------------|-------------|-------------|-------------|


||--------------|-------------|-------------|-------------|
||o-------------|-15----------|-------------|-15----------|
||----------14--|-----14------|---------14--|-----14------|
||------16------|---------16--|-----16------|---------16--|
||o-17----------|-------------|-15----------|-------------|
||--------------|-------------|-------------|-------------|


3x
|-------------|-0-----0----|------------|-----------------||
|-------------|------------|---------2--|---------2------o||
|----------0--|-----0---0--|-----0------|-----------------||
|------3------|------------|------------|-----------2-----||
|--1----------|------------|--0---------|--0--(0)--------o||
|-------------|------------|------------|-----------------||

3x
|-------------|-0----------|------------|-----------------||
|---------15--|----15------|--------14--|-----14---------o||
|-------------|---------0--|-----0------|-----------0-----||
|-----15------|------------|------------|-14--------------||
|-13----------|------------|-12---------|----------------o||
|-------------|------------|------------|-----------------||

ProTabs promo.jpg

Onbeperkt en gratis toegang tot alle 25.000
Tabs & Chords en direct meespelen met

Artiest Liedje

...

Gitaarakkoorden pink floyd - Eclipse

Dankzij de bladmuziek op deze pagina wordt het een stuk makkelijker om met de gitaar mee te spelen met Eclipse van pink floyd De ProTabs van Gitaartabs worden door onze professionele gitaardocenten samengesteld. De tabs en chords zijn door leden zelf geplaatst. Deze undefined van pink floyd met Eclipse is voor je geschreven door rog3r

Tabs & Chords van pink floyd - Eclipse

Bij de ProTabs delen we niet alleen de tablatuur maar ook de speelwijze van Eclipse Met een beetje gitaar ervaring moet je dit gitaarliedje zeker kunnen spelen, maar als het niet lukt zijn we er altijd om je te helpen. Door een gratis account aan te maken krijg je niet alleen toegang tot deze tab ,akkoorden & tabs van Eclipse maar kun je ook onbeperkt meespelen met een van de meer dan 25.000 andere tabs & chords in onze database.

Plaats opmerking

Beoordeel deze song

Rate UsDon’t love itNot greatGoodGreatLove itRate Us

Bedankt voor je beoordeling!