Hey you

Gitaarliedjes, tabs & akkoorden (chords) Hey you - pink floyd

Songtype: Tab

arrow&v

Markeer als favoriet

Favoriet

Gemarkeerd als favoriet

Capo:

0

pink floyd

pink floyd

Song
Album
Categorie

Hey you

Downloads
735
Niveau
2
Geplaatst door
rick
ProTabs-promo.jpg

||----------------------------------|
||o-7-----8-----8---7-----8-----8---|
||------9---9-----9-----9---9-----9-|
||----9-------9-------9-------9-----|
||o---------------------------------|
||----------------------------------|



|-------5-----5---------5-----5----||-------5-----5---------5----||
|-5-------6-------5-------6-------o||-5-------6-------5-------6--||
|-----7-----7---7-----7-----7---7--||-----7-----7---7-----7------||
|---7---------------7--------------||---7---------------7--------||
|---------------------------------o||----------------------------||
|----------------------------------||----------------------------||



een beetje kort maar dit is hum wel

ProTabs promo.jpg

Onbeperkt en gratis toegang tot alle 25.000
Tabs & Chords en direct meespelen met

Artiest Liedje

...

Gitaarakkoorden pink floyd - Hey you

Dankzij de bladmuziek op deze pagina wordt het een stuk makkelijker om met de gitaar mee te spelen met Hey you van pink floyd De ProTabs van Gitaartabs worden door onze professionele gitaardocenten samengesteld. De tabs en chords zijn door leden zelf geplaatst. Deze undefined van pink floyd met Hey you is voor je geschreven door rick

Tabs & Chords van pink floyd - Hey you

Bij de ProTabs delen we niet alleen de tablatuur maar ook de speelwijze van Hey you Met een beetje gitaar ervaring moet je dit gitaarliedje zeker kunnen spelen, maar als het niet lukt zijn we er altijd om je te helpen. Door een gratis account aan te maken krijg je niet alleen toegang tot deze tab ,akkoorden & tabs van Hey you maar kun je ook onbeperkt meespelen met een van de meer dan 25.000 andere tabs & chords in onze database.

Plaats opmerking

Beoordeel deze song

Rate UsDon’t love itNot greatGoodGreatLove itRate Us

Bedankt voor je beoordeling!