My darling

Gitaarliedjes, tabs & akkoorden (chords) My darling - pink panther

Songtype: Tab

arrow&v

Markeer als favoriet

Favoriet

Gemarkeerd als favoriet

Capo:

0

pink panther

pink panther

Song
Album
Categorie

My darling

Downloads
145
Niveau
2
Geplaatst door
gitaartabs
ProTabs-promo.jpg

Intro :
e|-----------------------------------------------|
B|-----------------------------------------------|
G|-----------------------------------------------|
D|--11---11-11---11-11-11-14---14-14---14-14-14--| x2
A|--12---12-12---12-12-12-12---12-12---12-12-12--|
E|-----------------------------------------------|


verse 1:

You took my hand...
e|-----------------------------------------------|
B|-----------------------------------------------|
G|-----------------------------------------------|
D|--11---11-11---11-11-11-14---14-14---14-14-14--|
A|--12---12-12---12-12-12-12---12-12---12-12-12--|
E|-----------------------------------------------|

You promised me you'd be...
e|-----------------------------------------------|
B|-----------------------------------------------|
G|-----------------------------------------------|
D|--11---11-11---11-11-11-14---14-14---14-14-14--|
A|--12---12-12---12-12-12-12---12-12---12-12-12--|
E|-----------------------------------------------|

Around... Uh huh...
e|-----------------------------------------------|
B|-----------------------------------------------|
G|-----------------------------------------------|
D|--12---12-12--12-12----11---11-11--11-11/------|
A|--14---14-14--14-14----9----9--9---9--9-/------|
E|-----------------------------------------------|

Thats right...
e|-----------------------------------------------|
B|-----------------------------------------------|
G|-----------------------------------------------|
D|--9---9--9---9--9--9--9----9--9---9--9---------|
A|--7---7--7---7--7--7--7----7--7---7--7---------|
E|-----------------------------------------------|

I took your words...
e|-----------------------------------------------|
B|-----------------------------------------------|
G|-----------------------------------------------|
D|--11---11-11---11-11-11-14---14-14---14-14-14--|
A|--12---12-12---12-12-12-12---12-12---12-12-12--|
E|-----------------------------------------------|

In everything You said to...
e|-----------------------------------------------|
B|-----------------------------------------------|
G|-----------------------------------------------|
D|--11---11-11---11-11-11-14---14-14---14-14-14--|
A|--12---12-12---12-12-12-12---12-12---12-12-12--|
E|-----------------------------------------------|
Me... Uh huh...
e|-----------------------------------------------|
B|-----------------------------------------------|
G|-----------------------------------------------|
D|--12---12-12--12-12----11---11-11--11-11-------|
A|--14---14-14--14-14----9----9--9---9--9--------|
E|-----------------------------------------------|

That's right...
e|-----------------------------------------------|
B|-----------------------------------------------|
G|-----------------------------------------------|
D|--9---9--9---9--9--9--9----9--9---9--9---------|
A|--7---7--7---7--7--7--7----7--7---7--7---------|
E|-----------------------------------------------|

Chorus: (there's 2 different way you can play the chorus...
with basic chords... or with all power chords... i personally
like the power chords more...)

Chorus A:
D = xx0323
E = 022100
F#m= 244222
A = 577455

D E F#m
If someone said three years from now...
A
You'd be long gone
D E F#m
I'd stand up and punch them out
A D...
Cause their all wrong
E
I know better
F#m A
because you said forever
D
and ever
E
who knew

Chorus B: (use power chords in same places)
E|--------------------------------------------------------|
B|--------------------------------------------------------|
G|-7-7-7-7-7--9-9-9-9-9--11-11-11-11-11-------------------|
D|-7-7-7-7-7--9-9-9-9-9--11-11-11-11-11--7-7-7-7-7-7-7----|
A|-5-5-5-5-5--7-7-7-7-7--9--9--9--9--9---7-7-7-7-7-7-7----|
E|---------------------------------------5-5-5-5-5-5-5----|




verse 2:

Remember when we were such fools
And so convinced and just too cool
Oh no... No no

I wish I could touch you again
I wish I could still call you friend
I'd give anything

cHORUS:
When someone said count your blessings now
For they're long gone
I guess I just didn't know how
I was all wrong

They knew better
Still you said forever
And ever... Who knew

Yeah yeah
I'll keep you locked in my head
Until we meet again
Until we...Until we meet again
And I won't forget you my friend
What happened

cHORUS:
If someone said three years from now, You'd be long gone
I'd stand up and punch them out,Cause they're all wrong and
That last kiss,I'll cherish, Until we meet again
And time makes, It harder, I wish I could remember
But I keep, Your memory, You visit me in my sleep
My darling, Who knew

My darling
My darling
Who knew
My darling
I miss you
My darling
Who knew

Outro :
e|------------------------------------------------|
B|------------------------------------------------|
G|------------------------------------------------|
D|--11-----11---11---14---14----14----------------|
A|-------12---12---12---12----12--12--------------|
E|------------------------------------------------|

Who knew...
e|------------------------------------------------|
B|------------------------------------------------|
G|------------------------------------------------|
D|--11-----11---11---14----14----14-------11------|
A|-------12---12---12----12----12--12-----12------|
E|------------------------------------------------|

ProTabs promo.jpg

Onbeperkt en gratis toegang tot alle 25.000
Tabs & Chords en direct meespelen met

Artiest Liedje

...

Gitaarakkoorden pink panther - My darling

Dankzij de bladmuziek op deze pagina wordt het een stuk makkelijker om met de gitaar mee te spelen met My darling van pink panther De ProTabs van Gitaartabs worden door onze professionele gitaardocenten samengesteld. De tabs en chords zijn door leden zelf geplaatst. Deze undefined van pink panther met My darling is voor je geschreven door gitaartabs

Tabs & Chords van pink panther - My darling

Bij de ProTabs delen we niet alleen de tablatuur maar ook de speelwijze van My darling Met een beetje gitaar ervaring moet je dit gitaarliedje zeker kunnen spelen, maar als het niet lukt zijn we er altijd om je te helpen. Door een gratis account aan te maken krijg je niet alleen toegang tot deze tab ,akkoorden & tabs van My darling maar kun je ook onbeperkt meespelen met een van de meer dan 25.000 andere tabs & chords in onze database.

Plaats opmerking

Beoordeel deze song

Rate UsDon’t love itNot greatGoodGreatLove itRate Us

Bedankt voor je beoordeling!