ย 

He is a pirat

Gitaarliedjes, tabs & akkoorden (chords) He is a pirat - pirates of the caribbean

Songtype: Tab

arrow&v

Markeer als favoriet

Favoriet

Gemarkeerd als favoriet

Capo:

0

pirates of the caribbean

pirates of the caribbean

Song
Album
Categorie

He is a pirat

Downloads
867
Niveau
2

Geplaatst door
roxanne
ProTabs-promo.jpg

e------------------------------------------------------------------------------------------------------------------|
B------------------------------------------------------------------------------------------------------------------|
G-------------------------------------------------------------------------------7----------------------------------|
D------------------------------------------------------------------------------------------------------------------|
A-------5โ€”5โ€”5โ€”5โ€”5โ€”5โ€”5โ€”5โ€”5โ€”5โ€”5โ€”5โ€”5โ€”5โ€”5โ€”5โ€”5โ€”5------------------------------------------------------------------------|
E------------------------------------------------------------------------------------------------------------------|

e------------------------------------------------------------------------------------------------------------------|
B----------------------------5โ€”6โ€”6------6โ€”8โ€”5โ€”5--------------------------------------------------------------------|
G----5โ€”7โ€”7--------7---------------------------------------------7โ€”5โ€”5h7--------------------------------------------|
D-7----------------------------------------------------------------------------------------------------------------|
A------------------------------------------------------------------------------------------------------------------|
E------------------------------------------------------------------------------------------------------------------|

e------------------------------------------------------------------------------------------------------------------|
B----------------------------5โ€”6โ€”6------6โ€”8โ€”5โ€”5--------------------------------------------------------------------|
G------5โ€”7โ€”7-------7-----------------------------------------7โ€”5โ€”7-------------------------------------------------|
D-7----------------------------------------------------------------------------------------------------------------|
A------------------------------------------------------------------------------------------------------------------|
E------------------------------------------------------------------------------------------------------------------|

e--------------------------------------------------5โ€”6โ€”6--------5------5-------------------------------------------|
B----------------------------6โ€”8โ€”8-------8--------------------------8----------------------------------------------|
G-----5โ€”7โ€”7-------7---------------------------------------------------------7--------------------------------------|
D-7----------------------------------------------------------------------------------------------------------------|
A------------------------------------------------------------------------------------------------------------------|
E------------------------------------------------------------------------------------------------------------------|

e-------------------------5----------------------------------------------------------------------------------------|
B----5โ€”6โ€”6------8-------------------6--5--5--6------5--------------------------------------------------------------|
G-7--------------------------7--------7------------------7---------------------------------------------------------|
D------------------------------------------------------------------------------------------------------------------|
A------------------------------------------------------------------------------------------------------------------|
E------------------------------------------------------------------------------------------------------------------|

e------------------------------------------------------------------------------------------------------------------|
B----------------------------5โ€”6โ€”6------6โ€”8โ€”5โ€”5--------------------------------------------------------------------|
G----5โ€”7โ€”7--------7---------------------------------------------7โ€”5โ€”5h7--------------------------------------------|
D-7----------------------------------------------------------------------------------------------------------------|
A------------------------------------------------------------------------------------------------------------------|
E------------------------------------------------------------------------------------------------------------------|

e------------------------------------------------------------------------------------------------------------------|
B----------------------------5โ€”6โ€”6------6โ€”8โ€”5โ€”5--------------------------------------------------------------------|
G------5โ€”7โ€”7-------7-----------------------------------------7โ€”5โ€”7-------------------------------------------------|
D-7----------------------------------------------------------------------------------------------------------------|
A------------------------------------------------------------------------------------------------------------------|
E------------------------------------------------------------------------------------------------------------------|

e--------------------------------------------------5โ€”6โ€”6--------5------5-------------------------------------------|
B----------------------------6โ€”8โ€”8-------8--------------------------8----------------------------------------------|
G-----5โ€”7โ€”7-------7---------------------------------------------------------7--------------------------------------|
D-7----------------------------------------------------------------------------------------------------------------|
A------------------------------------------------------------------------------------------------------------------|
E------------------------------------------------------------------------------------------------------------------|

e-------------------------5----------------------------------------------------------------------------------------|
B----5โ€”6โ€”6------8-------------------6--5--5------------------------------------------------------------------------|
G-7--------------------------7--------7-------------7--5โ€”7---------------------------------------------------------|
D------------------------------------------------------------------------------------------------------------------|
A------------------------------------------------------------------------------------------------------------------|
E------------------------------------------------------------------------------------------------------------------|

e----------------------5/1---------------6-------------------------------------------------------------------------|
B-----5โ€”6โ€”6โ€”8----------3--------------6----------------------------------------------------------------------------|
G-7--------------------------------2--------------7-----------7---10-----------------------------------------------|
D------------------------------------------------------8โ€”7โ€”7---7---------------------------------------------------|
A------------------------------------------------------------------------------------------------------------------|
E------------------------------------------------------------------------------------------------------------------|

e------------------------------------------------------------------------------------------------------------------|
B-10โ€”10โ€”10โ€”11โ€”10-----8โ€”8โ€”8โ€”8โ€”10-----10โ€”10โ€”10โ€”11โ€”10---8โ€”6โ€”5โ€”6-------------------------------------------------------|
G-10โ€”10โ€”10โ€”10โ€”10-----9โ€”9โ€”9โ€”9โ€”9-------10โ€”10โ€”10โ€”10โ€”10---9โ€”7-------7--------------------------------------------------|
D------------------------------------------------------------------------------------------------------------------|
A------------------------------------------------------------------------------------------------------------------|
E------------------------------------------------------------------------------------------------------------------|

e------------------------------------------------------------------------------------------------------------------|
B----------------8โ€”10โ€”8------------------8โ€”10โ€”8---------8โ€”10--8----------------------------------------------------|
G-7โ€”9โ€”10-----------------10โ€”8โ€”10------------------10--------------------9โ€”10โ€”9โ€”7โ€”9โ€”5โ€”7-----------------------------|
D------------------------------------------------------------------------------------------------------------------|
A------------------------------------------------------------------------------------------------------------------|
E------------------------------------------------------------------------------------------------------------------|

e------------------------------------------------------------------------------------------------------------------|
B--------------------------8---------8โ€”10โ€”8-----------------------------8โ€”10โ€”11โ€”8----------------------------------|
G-7โ€”9โ€”10โ€”9โ€”10------10------------------10โ€”7-----7โ€”9โ€”10-----------------------9โ€”10โ€”9โ€”7โ€”9โ€”5--------------------------|
D------------------------------------------------------------------------------------------------------------------|
A------------------------------------------------------------------------------------------------------------------|
E------------------------------------------------------------------------------------------------------------------|

e------------------------------------------------------------------------------------------------------------------|
B------10----11---โ€”10โ€”10โ€”10---10------8----------------------------------------------------------------------------|
G------7------10--โ€”10โ€”10โ€”10โ€”10-------------12โ€”10โ€”9โ€”10โ€”9โ€”7----------------------------------------------------------|
D---------------------------------------------------------12โ€”10โ€”7โ€”7-----7โ€”7----------------------------------------|
A------------------------------------------------------------------------------------------------------------------|
E------------------------------------------------------------------------------------------------------------------|

e---------------5------------------------6---------------------5โ€”5โ€”8โ€”5---------------------------------------------|
B----------6------------------------6---------------------6----------------------8------8โ€”6-----5---6โ€”5------------|
G-----7------------------------7---------------------7-----------------------------------9โ€”7-----7-----------7-----|
D-7----------------------7----------------------7------------------------------------------------------------------|
A------------------------------------------------------------------------------------------------------------------|
E------------------------------------------------------------------------------------------------------------------|




ProTabs promo.jpg

Onbeperkt en gratis toegang tot alle 25.000
Tabs & Chords en direct meespelen met

Artiest Liedje

...

Gitaarakkoorden pirates of the caribbean - He is a pirat

Dankzij de bladmuziek op deze pagina wordt het een stuk makkelijker om met de gitaar mee te spelen met He is a pirat van pirates of the caribbean De ProTabs van Gitaartabs worden door onze professionele gitaardocenten samengesteld. De tabs en chords zijn door leden zelf geplaatst. Deze undefined van pirates of the caribbean met He is a pirat is voor je geschreven door roxanne

Tabs & Chords van pirates of the caribbean - He is a pirat

Bij de ProTabs delen we niet alleen de tablatuur maar ook de speelwijze van He is a pirat Met een beetje gitaar ervaring moet je dit gitaarliedje zeker kunnen spelen, maar als het niet lukt zijn we er altijd om je te helpen. Door een gratis account aan te maken krijg je niet alleen toegang tot deze tab ,akkoorden & tabs van He is a pirat maar kun je ook onbeperkt meespelen met een van de meer dan 25.000 andere tabs & chords in onze database.

Plaats opmerking

Verstuur

Beoordeel deze song

Rate UsDonโ€™t love itNot greatGoodGreatLove itRate Us

Bedankt voor je beoordeling!