Pirates of the caribbean (officiele versie)

Gitaarliedjes, tabs & akkoorden (chords) Pirates of the caribbean (officiele versie) - pirates of the caribbean

Songtype: Tab

arrow&v

Markeer als favoriet

Favoriet

Gemarkeerd als favoriet

Capo:

0

pirates of the caribbean

pirates of the caribbean

Song
Album
Categorie

Pirates of the caribbean (officiele versie)

Downloads
2874
Niveau
2
Geplaatst door
gitaartabs
ProTabs-promo.jpg

E----------------------------------------------------------------------------------------------
B------------------------------------------------------------------------5--6--6--6-8--5--5----
G----------------------------------------------7----------5---7--7--7--------------------------
D-----------------------------------------------------7----------------------------------------
A-5--5-5--5-5--5-5-5-5--5--5-5--5-5--5-5-5-5---5-----------------------------------------------
E-----------------------------------------------------------------------------------------------

E --------------------------------------------------------------------------------------------------------------5-
B ----------------------------------------5--6--6--6-8--5--5---------------------------------------6--8--8--8-----
G ---7-5---5-7v ------------5--7--7--7--------------------------7-5--7v---------------5--7--7--7-------------------
D -----------------------7---------------------------------------------------------7------------------------------
A ----------------------------------------------------------------------------------------------------------------
E ----------------------------------------------------------------------------------------------------------------

E-----6--6--5----5------------------------------5----------------------------------------------------------------
B--------------8-------------------5--6--6--8-----------------6--5--5--6-----------------6--5--5--6-----5--------
G---------------------7---------7------------------7--------7--------------7----------7---------------7----------
D----------------------------------------------------------------------------------------------------------------
A----------------------------------------------------------------------------------------------------------------
E----------------------------------------------------------------------------------------------------------------

E--------------------------------------------------------------------------------------------------------------------
B--------------------5--6--6--6-8--5--5-------------------------------------------5--6--6-8--5--5--------------------
G------5--7--7--7-------------------------7-5--5-7v-----------------5--7--7--7----------------------7-5--7v----------
D---7-------------------------------------------------------------7--------------------------------------------------
A--------------------------------------------------------------------------------------------------------------------
E--------------------------------------------------------------------------------------------------------------------

E---------------------------------5--6--6--5-----5---------------------------5------------------------------
B-------------------6--8--8--8---------------8----------------5--6--6--8----------------6--5---5------------
G-----5--7--7--7------------------------------------7------7-------------------7------7------------7-5------
D---7-------------------------------------------------------------------------------------------------------
A-----------------------------------------------------------------------------------------------------------
E-----------------------------------------------------------------------------------------------------------

E-----------------------------5----1---------6----------------------------------------------------
B-----------(4)-5--6--6--8--------3-----------------6----------------------------10--10--10--11-10-
G---7--7-----------------------------2-----------------7-----------7---10-------10--10--10--10----
D-----------------------------------------------------8------7-----7----7-------------------------
A-------------------------------------------------------------------------------------------------
E-------------------------------------------------------------------------------------------------

E---------------------------------------------------------------------------------------------------
B--8--8--8--8-10-----------10--10--10--11-10-------8--6--5-----------------------8-10--8------------
G--9--9--9--9--------------10--10---10--10---------9--7--0--7---------7-9--10------------10--9--10--
D--------------------------------------------------------------7------------------------------------
A---------------------------------------------------------------------------------------------------
E---------------------------------------------------------------------------------------------------

E----------------------------------------------------------------------------------------
B----8--10---8-----------------------------------------------------8-------8--10--8------
G-----------------10--9--10--9--7---9-5--7-----7-9--10--9-10------10--------------10--7--
D----------------------------------------------------------------------------------------
A----------------------------------------------------------------------------------------
E----------------------------------------------------------------------------------------






E-----------------------------------------------------------------------------------------
B---------------8--10--11------8--------8-----------------10-----11----10--10--10-10-8----
G---7-9--10-----------------7-----10------9--7---9-5--------------------------------------
D--------------------------------------------------------7-------8------7----7---7---7--5-
A-----------------------------------------------------------------------------------------
E----------------------------------------------------------------------------------------

E------------------------------------------------------------------------------------------
B----8------6-------5--6--5--3--------10--------11---------10--10--10--10-8-----8------6---
G----------------------------2-----------------------------7---7----7---7-5----------------
D----5------3-------2--3--2--0---------7---------8------------------------------5------3---
A------------------------------------------------------------------------------------------
E------------------------------------------------------------------------------------------

E----------------------------5--------6--------5--5--8--5------------------------------------------
B---5--6--5--3-----------6---------6--------6---------------8-----8--------6------5--6--5----------
G------------2--------7----------7-------7------------------------9--------7------5--7--5--7-------
D---2--3--2--0------7----------7------7------------------------------------------------------------
A--------------------------------------------------------------------------------------------------
E--------------------------------------------------------------------------------------------------

E-------------5-------------6-------------5--5--8--5-------------------------------------------------
B---------6-------------6-------------6----------------8-----8-------6------5--6--5------------------
G------7------------7--------------7------------------------9--------7-------5--7--5--7--7-----------
D---7------------7--------------7--------------------------------------------------------------------
A----------------------------------------------------------------------------------------------------
E----------------------------------------------------------------------------------------------------

metronoom -> 200

als je het ritme wilt horen moet je op youtube eens 'pirates of the caribbean gitaar' intypen en het eerste filmpje bekijken

ProTabs promo.jpg

Onbeperkt en gratis toegang tot alle 25.000
Tabs & Chords en direct meespelen met

Artiest Liedje

...

Gitaarakkoorden pirates of the caribbean - Pirates of the caribbean (officiele versie)

Dankzij de bladmuziek op deze pagina wordt het een stuk makkelijker om met de gitaar mee te spelen met Pirates of the caribbean (officiele versie) van pirates of the caribbean De ProTabs van Gitaartabs worden door onze professionele gitaardocenten samengesteld. De tabs en chords zijn door leden zelf geplaatst. Deze undefined van pirates of the caribbean met Pirates of the caribbean (officiele versie) is voor je geschreven door gitaartabs

Tabs & Chords van pirates of the caribbean - Pirates of the caribbean (officiele versie)

Bij de ProTabs delen we niet alleen de tablatuur maar ook de speelwijze van Pirates of the caribbean (officiele versie) Met een beetje gitaar ervaring moet je dit gitaarliedje zeker kunnen spelen, maar als het niet lukt zijn we er altijd om je te helpen. Door een gratis account aan te maken krijg je niet alleen toegang tot deze tab ,akkoorden & tabs van Pirates of the caribbean (officiele versie) maar kun je ook onbeperkt meespelen met een van de meer dan 25.000 andere tabs & chords in onze database.

Plaats opmerking

Beoordeel deze song

Rate UsDon’t love itNot greatGoodGreatLove itRate Us

Bedankt voor je beoordeling!