Hey there delilah [easy]

Gitaarliedjes, tabs & akkoorden (chords) Hey there delilah [easy] - plain white t's

Songtype: Tab

arrow&v

Markeer als favoriet

Favoriet

Gemarkeerd als favoriet

Capo:

0

plain white t's

plain white t's

Song
Album
Categorie

Hey there delilah [easy]

all that we needed

Downloads
665
Niveau
2
Geplaatst door
tess
ProTabs-promo.jpg



Intro
e-------------------------------------------------------------------|
B---3---3---3---3---2---2---2---2---3---3---3---3---2---2---2---2---|
G-------------------------------------------------------------------|
D-0---0---0---0---4---4---4---4---0---0---0---0---4---4---4---4-----|
A-------------------------------------------------------------------|
E-------------------------------------------------------------------|


Verse 1:
e-------------------------------------------------------------------|
B---3---3---3---3---2---2---2---2---3---3---3---3---2---2---2-------|
G-------------------------------------------------------------------|
D-0---0---0---0---4---4---4---4---0---0---0---0---4---4---4---4-----|
A-------------------------------------------------------------------|
E-------------------------------------------------------------------|

e-------------------------------------------------------------------|
B---3---3---3-------3---3---2---2---3---3---3---3---2---2---5---5---|
G-------------------------------------------------------------------|
D-------------------------------------------------------------------|
A-2---2---2---0-----------0---0---2---2---2---2---0---0---0---0-----|
E-----------------3---3---------------------------------------------|

e-------------------------------------------------------------------|
B---3---3---3---3---2---2---2---2---3---3---3---3---2---2---2-------|
G-------------------------------------------------------------------|
D-0---0---0---0---4---4---4---4---0---0---0---0---4---4---4---4-----|
A-------------------------------------------------------------------|
E-------------------------------------------------------------------|

e-------------------------------------------------------------------|
B---3---3---3-------3---3---2---2---3---3---3---3---2---2---5---5---|
G-------------------------------------------------------------------|
D-------------------------------------------------------------------|
A-2---2---2---0-----------0---0---2---2---2---2---0---0---0---0-----|
E-----------------3---3---------------------------------------------|

Hey there Delilah,
What's it like in New York City?
I'm a thousand miles away,
But girl tonight you look so pretty,
Yes you do,
Time Square can't shine as bright as you,
I swear it's true.
Hey there Delilah,
Don't you worry about the distance,
I'm right there if you get lonely,
Give this song another listen,
Close your eyes,
Listen to my voice it's my disguise,
I'm by your side.


Chorus
e-------------------------------------------------------------------|
B---3---3---3-------3---3---3---3---3---3---3--------3---3---3---3--|
G-------------------------------------------------------------------|
D-0---0---0-----------------------0---0---0-------------------------|
A-------------0---2---2---2---4----------------0---2---2---2---4----|
E-------------------------------------------------------------------|

e-------------------------------------------------------------------|
B---3---3---3-------3---3---3---3---3---3---3--------3---3---3---3--|
G-------------------------------------------------------------------|
D-0---0---0-----------------------0---0---0-------------------------|
A-------------0---2---2---2---4----------------0---2---2---2---4----|
E-------------------------------------------------------------------|

Oh it's what you do to me,
Oh it's what you do to me,
Oh it's what you do to me,
Oh it's what you do to me,
What you do to me.


Interlude
e-----------------------|
B---3---3---3---3-------|
G-----------------------|
D-0---0---0-------------|
A-------------0---------|
E-----------------------|


Verse 2:
e-------------------------------------------------------------------|
B---3---3---3---3---2---2---2---2---3---3---3---3---2---2---2-------|
G-------------------------------------------------------------------|
D-0---0---0---0---4---4---4---4---0---0---0---0---4---4---4---4-----|
A-------------------------------------------------------------------|
E-------------------------------------------------------------------|

e-------------------------------------------------------------------|
B---3---3---3-------3---3---2---2---3---3---3---3---2---2---5---5---|
G-------------------------------------------------------------------|
D-------------------------------------------------------------------|
A-2---2---2---0-----------0---0---2---2---2---2---0---0---0---0-----|
E-----------------3---3---------------------------------------------|

e-------------------------------------------------------------------|
B---3---3---3---3---2---2---2---2---3---3---3---3---2---2---2-------|
G-------------------------------------------------------------------|
D-0---0---0---0---4---4---4---4---0---0---0---0---4---4---4---4-----|
A-------------------------------------------------------------------|
E-------------------------------------------------------------------|

e-------------------------------------------------------------------|
B---3---3---3-------3---3---2---2---3---3---3---3---2---2---5---5---|
G-------------------------------------------------------------------|
D-------------------------------------------------------------------|
A-2---2---2---0-----------0---0---2---2---2---2---0---0---0---0-----|
E-----------------3---3---------------------------------------------|

Hey there Delilah,
I know times are getting hard,
But just believe me girl some day,
I'll pay the bills with this guitar,
We'll have it good,
We'll have the life we knew we would,
My word is good.
Hey there Delilah,
I've got so much left to say,
If every simple song I wrote to you,
Would take your breath away,
I'd write it all,
Even more in love with me you'd fall,
We'd have it all.


Chorus
e-------------------------------------------------------------------|
B---3---3---3-------3---3---3---3---3---3---3--------3---3---3---3--|
G-------------------------------------------------------------------|
D-0---0---0-----------------------0---0---0-------------------------|
A-------------0---2---2---2---4----------------0---2---2---2---4----|
E-------------------------------------------------------------------|

e-------------------------------------------------------------------|
B---3---3---3-------3---3---3---3---3---3---3--------3---3---3------|
G-------------------------------------------------------------------|
D-0---0---0-----------------------0---0---0-------------------------|
A-------------0---2---2---2---4----------------0---2---2---2---0----|
E-------------------------------------------------------------------|

Oh it's what you do to me,
Oh it's what you do to me,
Oh it's what you do to me,
Oh it's what you do to me


Bridge
e-------------------------------------------------------------------|
B---3---3---3---3---2---2---2---2---3---3---3-------3---3---3-------|
G-------------------------------------------------------------------|
D---------------------------------0---0---0-------------------------|
A-----------------0---0---0---0---------------0---2---2---2---0-----|
E-3---3---3---3-----------------------------------------------------|

e-------------------------------------------------------------------|
B---3---3---3---3---2---2---2---2---3---3---3-------3---3---3-------|
G-------------------------------------------------------------------|
D---------------------------------0---0---0-------------------------|
A-----------------0---0---0---0---------------4---2---2---2---0-----|
E-3---3---3---3-----------------------------------------------------|

e-------------------------------------------------------------------|
B---3---3---3---3---2---2---2-------3---3---3---3---3---3---3---3---|
G-------------------------------------------------------------------|
D-------------------------------------------------------------------|
A-----------------0---0---0---0---2---2---2---2---2---2---2---2-----|
E-3---3---3---3-----------------------------------------------------|

e-----------------------------------|
B---2---2---2---2---5---5---5---5---|
G-----------------------------------|
D-----------------------------------|
A-0---0---0---0---0---0---0---0-----|
E-----------------------------------|

A thousand miles seems pretty far,
But they've got planes and trains and cars,
I'd walk to you if I had no other way.
Our friends would all make fun of us,
And we'll just laugh along because,
We know that none of them have felt this way,
Delilah I can promise you,
That by the time that we get through,
The world will never ever be the same ..... And you're to blame!


Verse 3:
e-------------------------------------------------------------------|
B---3---3---3---3---2---2---2---2---3---3---3---3---2---2-----------|
G-------------------------------------------------------------------|
D-0---0---0---0---4---4---4---4---0---0---0---0---4---4---4---------|
A-------------------------------------------------------------------|
E-------------------------------------------------------------------|

e-------------------------------------------------------------------|
B---3---3---3-------3---3---2---2---3---3---3-------3---3---2---2---|
G-------------------------------------------------------------------|
D-------------------------------------------------------------------|
A-2---2---2---0-----------0---0---2---2---2---0-----------0---0-----|
E-----------------3---3---------------------------3---3-------------|

e-------------------------------------------------------------------|
B---3---3---3-------3---3---2---2---3---3---3---3---2---2---2---2---|
G-------------------------------------------------------------------|
D-------------------------------------------------------------------|
A-2---2---2---0-----------0---0---2---2---2---2---0---0---0---0-----|
E-----------------3---3---------------------------------------------|

e-------------------|
B---5---5---5---5---|
G-------------------|
D-------------------|
A-0---0---0---0-----|
E-------------------|

Hey there Delilah you be good,
And don't you miss me,
Two more years and you'll be done with school,
And I'll be making history,
Like I do,
You'll know it's all because of you,
We can do whatever we want to
Hey there Delilah here's to you,
This one's for you.


Chorus
e-------------------------------------------------------------------|
B---3---3---3-------3---3---3---3---3---3---3-------3---3---3---3---|
G-------------------------------------------------------------------|
D-0---0---0-----------------------0---0---0-------------------------|
A-------------0---2---2---2---4---------------0---2---2---2---4-----|
E-------------------------------------------------------------------|

e-------------------------------------------------------------------|
B---3---3---3-------3---3---3---3---3---3---3-------3---3---3---3---|
G-------------------------------------------------------------------|
D-0---0---0-----------------------0---0---0-------------------------|
A-------------0---2---2---2---4---------------0---2---2---2---4-----|
E-------------------------------------------------------------------|

e-------------------------------------------------------------------|
B---3---3---3-------3---3---3---3---3---3---3-------3---3---3---3---|
G-------------------------------------------------------------------|
D-0---0---0-----------------------0---0---0-------------------------|
A-------------0---2---2---2---4---------------0---2---2---2---4-----|
E-------------------------------------------------------------------|

e-------------------------------------------------------------------|
B---3---3---3-------3---3---3---3---3---3---3-------3---3---3---3---|
G-------------------------------------------------------------------|
D-0---0---0-----------------------0---0---0-------------------------|
A-------------0---2---2---2---4---------------0---2---2---2---4-----|
E-------------------------------------------------------------------|

Oh it's what you do to me,
Oh it's what you do to me,
Oh it's what you do to me,
Oh it's what you do to me,
What you do to me.


Ending
e-----------------2---|
B---3---3---3---3-3---|
G-----------------2---|
D-0---0---0-------0---|
A-------------0-------|
E---------------------|

ProTabs promo.jpg

Onbeperkt en gratis toegang tot alle 25.000
Tabs & Chords en direct meespelen met

Artiest Liedje

...

Gitaarakkoorden plain white t's - Hey there delilah [easy]

Dankzij de bladmuziek op deze pagina wordt het een stuk makkelijker om met de gitaar mee te spelen met Hey there delilah [easy] van plain white t's De ProTabs van Gitaartabs worden door onze professionele gitaardocenten samengesteld. De tabs en chords zijn door leden zelf geplaatst. Deze undefined van plain white t's met Hey there delilah [easy] is voor je geschreven door tess

Tabs & Chords van plain white t's - Hey there delilah [easy]

Bij de ProTabs delen we niet alleen de tablatuur maar ook de speelwijze van Hey there delilah [easy] Met een beetje gitaar ervaring moet je dit gitaarliedje zeker kunnen spelen, maar als het niet lukt zijn we er altijd om je te helpen. Door een gratis account aan te maken krijg je niet alleen toegang tot deze tab ,akkoorden & tabs van Hey there delilah [easy] maar kun je ook onbeperkt meespelen met een van de meer dan 25.000 andere tabs & chords in onze database.

Plaats opmerking

Beoordeel deze song

Rate UsDon’t love itNot greatGoodGreatLove itRate Us

Bedankt voor je beoordeling!