'39 (livekillers)

Gitaarliedjes, tabs & akkoorden (chords) '39 (livekillers) - queen

Songtype: Tab

arrow&v

Markeer als favoriet

Favoriet

Gemarkeerd als favoriet

Capo:

0

queen

queen

Song
Album
Categorie

'39 (livekillers)

livekillers

Downloads
849
Niveau
2
Geplaatst door
siemj
ProTabs-promo.jpg

(copy in courier new)

'39(livekillers) - Queen

Intro:
G D Em C G D C G/
e|---3-------2-/-(0)----------0/---3--------2/---0-------3/
B|---3-------3-/-(0)----------1/---3-3p0----3/---1-------3/
G|---0-------2-/-(0)----------0/---0----2p0-2/---0-------0/
D|---0-----0(0)/--2-2h4p2p0---2/---0--------0/---2-0h2---0/
A|-2-2-2h3-----/--2---------3-3/---2---------/-3(3)------2/
E|-------------/0--------------/-3(3)--------/---------3-3/
G D Em C Em/C Dsus2 G
e|---3-------2-/-(0)---0------0/-0---0---0-------3/
B|---3-------3-/-(0)---0------1/-0---0---3-------3/
G|---0-------2-/-(0)---0------0/-0---0---2-0-----0/
D|---0-----0(0)/--2-2h4p2p0---2/-2---2---0---4---0/
A|-2-2-2h3-----/--2---------3-3/---3---3---------2/
E|-------------/0--------------/---------------3-3/

D Em
In the year of '39, assembled here the volunteers
C G D Dsus4 - D - Dsus2 - D
In the days when lands were few
Em Em7 C
Here the ship sailed out into the Blue and sunny morn
Dsus4 D G
Sweetest sight ever seen.
D C7b9
And night followed day, and the story tellers say
Em Em/F# Em/G Am c - b - Am
That the score brave souls in - side
G D
For many a lonely day, sailed a - cross the milky seas
C/ Em/ C/ D/ C/ G/ D
Never looked back, never feared, never cried.

G C G
Don't you hear my call, though you're many years a - way,
G D
Don't you hear me calling you
G B7/F# Em
Write your letters in the sand
D C C/B Am
for the day I take your hand
g a G/B Csus2 D G
In the land that our grandchildren knew.

Break:
Eb Eb/D Eb/C
aahahahahah aah aahahahahahah
A C F#m C
aahahahahah aahahah aah aah.
Am E Bb - Bbsus4 - Bb - Cm - F#m - G
aahahahahah aaah

D Em
In the year of '39 came a ship in from the blue
C G D Dsus4 - D - Dsus2 - D
The Volun - teers came home that day
Em Em7 C
And they bring good news of a world so newly born
Dsus4 D G Em7/C/ - G
Though their hearts so heavily weigh
D C7b9
For the earth is old and grey, to a new home we'll away
Em Em/F# Em/G Am c - b - Am
But my love this can - not be
G D
For so many years have gone though I'm older but a year
C Em C D C G D
Your mother's eyes in your eyes cry to me.

G C G
Don't you hear my call, though you're many years a - way,
G D
Don't you hear me calling you
G B7/F# Em
All the letters in the sand
D C C/B Am
cannot heal me like your hand
g a G/B Csus2 D G D
In the land that our grandchildren knew.

G C G
Don't you hear my call, though you're many years a - way,
G D
Don't you hear me calling you
G B7/F# Em
All the letters in the sand
D/ C/ C/B Am
cannot heal me like your hand
Em/
For my life /
D/
Still a - head /
G/
Pity Me.

Outro:
G D/ Em C/ Em/C Dsus2 G C G//
e|---3-------2-/-(0)---0------0/-0---0---0-------3-3-3//
B|---3-------3-/-(0)---0------1/-0---0---3-------3-1-0//
G|---0-------2-/-(0)---0------0/-0---0---2-0-----0-0-0//
D|---0-----0(0)/--2-2h4p2p0---2/-2---2---0---4---0-2-0//
A|-2-2-2h3-----/--2---------3-3/---3---3---------2-3-2//
E|-------------/0--------------/---------------3-3---3//

Em/C x32000
Dsus2 xx0230
Em7 020030
022030
Dsus4 xx0233
C7b9 x21212
Em/F# 222000
Em/G 322000
c x3xxxx
b x2xxxx
B7/F# 221202
C/B x22010
g 3xxxxx
a x0xxxx
G/B x20033
Csus2 x30033
Em7/C x32033
Eb xx1343
Eb/D xx0343
Eb/C x3x343
F#m 244222
Bbsus4 x13341

with some fingerpickingskills it´s possible to include John´s walking bass

ProTabs promo.jpg

Onbeperkt en gratis toegang tot alle 25.000
Tabs & Chords en direct meespelen met

Artiest Liedje

...

Gitaarakkoorden queen - '39 (livekillers)

Dankzij de bladmuziek op deze pagina wordt het een stuk makkelijker om met de gitaar mee te spelen met '39 (livekillers) van queen De ProTabs van Gitaartabs worden door onze professionele gitaardocenten samengesteld. De tabs en chords zijn door leden zelf geplaatst. Deze undefined van queen met '39 (livekillers) is voor je geschreven door siemj

Tabs & Chords van queen - '39 (livekillers)

Bij de ProTabs delen we niet alleen de tablatuur maar ook de speelwijze van '39 (livekillers) Met een beetje gitaar ervaring moet je dit gitaarliedje zeker kunnen spelen, maar als het niet lukt zijn we er altijd om je te helpen. Door een gratis account aan te maken krijg je niet alleen toegang tot deze tab ,akkoorden & tabs van '39 (livekillers) maar kun je ook onbeperkt meespelen met een van de meer dan 25.000 andere tabs & chords in onze database.

Plaats opmerking

Beoordeel deze song

Rate UsDon’t love itNot greatGoodGreatLove itRate Us

Bedankt voor je beoordeling!