Daily news

Gitaarliedjes, tabs & akkoorden (chords) Daily news - Racoon

Songtype: Tab

arrow&v

Markeer als favoriet

Favoriet

Gemarkeerd als favoriet

Capo:

0

Racoon

Racoon

Song
Album
Categorie

Daily news

Downloads
479
Niveau
2
Geplaatst door
rick
ProTabs-promo.jpg

Eb |------------------------------------------------------------------------------
Bb |------------------------------------------------------------------------------
Gb |------------------------------------------------------------------------------
Db |--------------------------------4-----------------------------4-0-------------
Ab |----------0-------0-------0---------------0-------0-------0-------------------
Eb |--2-0-0h2---0-0h2---0-0h2---0h2---2-0-0h2---0-0h2---0-0h2---0h2---------------
* * * * * * * *

[chorus riff]

D5 E5 D5 E5 D5 E5 D5

Eb |-----------------------------------------------------------------------------
Bb |--3---3-3-3-3-3-5-5---3-3-3-3-3-5-5---3-3-3-3-3-5-5---3-3-3-3-3--------------
Gb |--2---2-2-2-2-2-4-4---2-2-2-2-2-4-4---2-2-2-2-2-4-4---2-2-2-2-2--------------
Db |--0---0-0-0-0-0-2-2---0-0-0-0-0-2-2---0-0-0-0-0-2-2---0-0-0-0-0--------------
Ab |-----------------------------------------------------------------------------
Eb |-----------------------------------------------------------------------------
* * * * * * * *

F#5 A5 F#5 A5 F#5 E5 F#5

Eb |-----------------------------------------------------------------------------
Bb |--7---7-7-7-7-7-1010--7-7-7-7-7-1010--7-7-7-7-7-5-5---7-7-7-7-7--------------
Gb |--6---6-6-6-6-6-9-9---6-6-6-6-6-9-9---6-6-6-6-6-4-4---6-6-6-6-6--------------
Db |--4---4-4-4-4-4-7-7---4-4-4-4-4-7-7---4-4-4-4-4-2-2---4-4-4-4-4--------------
Ab |-----------------------------------------------------------------------------
Eb |-----------------------------------------------------------------------------
* * * * * * * *


Guitar II (distorded, let ring) played during verse II

F#m F#sus2 Dsus2

Eb |--9---------------9---------------5--------------------------------------------
Bb |--10--------------9---------------5--------------------------------------------
Gb |--11--------------10--------------7--------------------------------------------
Db |--11--------------10--------------7--------------------------------------------
Ab |--9---------------9---------------5--------------------------------------------
Eb |------------------------------------------------------------------------------
* * * * * * * *

ProTabs promo.jpg

Onbeperkt en gratis toegang tot alle 25.000
Tabs & Chords en direct meespelen met

Artiest Liedje

...

Gitaarakkoorden Racoon - Daily news

Dankzij de bladmuziek op deze pagina wordt het een stuk makkelijker om met de gitaar mee te spelen met Daily news van Racoon De ProTabs van Gitaartabs worden door onze professionele gitaardocenten samengesteld. De tabs en chords zijn door leden zelf geplaatst. Deze undefined van Racoon met Daily news is voor je geschreven door rick

Tabs & Chords van Racoon - Daily news

Bij de ProTabs delen we niet alleen de tablatuur maar ook de speelwijze van Daily news Met een beetje gitaar ervaring moet je dit gitaarliedje zeker kunnen spelen, maar als het niet lukt zijn we er altijd om je te helpen. Door een gratis account aan te maken krijg je niet alleen toegang tot deze tab ,akkoorden & tabs van Daily news maar kun je ook onbeperkt meespelen met een van de meer dan 25.000 andere tabs & chords in onze database.

Plaats opmerking

Beoordeel deze song

Rate UsDon’t love itNot greatGoodGreatLove itRate Us

Bedankt voor je beoordeling!