Eric's bar

Gitaarliedjes, tabs & akkoorden (chords) Eric's bar - Racoon

Songtype: Tab

arrow&v

Markeer als favoriet

Favoriet

Gemarkeerd als favoriet

Capo:

0

Racoon

Racoon

Song
Album
Categorie

Eric's bar

Downloads
1003
Niveau
2
Geplaatst door
rick
ProTabs-promo.jpg

e--------------------------------------------------
B--------------------------------------------------
G--------------------------------------------4s3---
D---4-----2---4-----2------4-----2---4-----2-------
A------2h4-------2h4-4-2------2h4-------2h4--------
E-2---2-----2---2--------2---2-----2---2-----------

e--------------------------------------------------
B---------2-----------2----------------------------
G-4-4-2-4---2-4-4-2-4---4--------------------------
D--------------------------------------------------
A--------------------------------------------------
E--------------------------------------------------


Let's stay in bed, no better yet
Take my bike and go outside
'Cause if! don't and stay inside
Then I know I'll lose my mind

Thought I was dead, buried and left
All! did was take a breather
Tied to the bed so I could stay out of trouble for a day
Yeah right, no way

This is home, this is roots
This is where you're understood
Take your bike and leave the car
Going straight to Eric's Bar

'You're on your own' was on the phone
It's too hot to stay inside, he said
So get your shorts and find a smile
Let's go grab a beer a while, just for a while

We ramble on, humming a song, we don't mean to hurt no one
We blow our nose in the dresscodes
They don't even see us run with our worn-out sneakers on

Take a dive, skinny dip, it's okay to lose your grip,
feel the breeze, cool the brew, giving Kimberley the lip

You never have to lie, never have to fake,
never lose your fun, never have to hide away
These people know you well, they will not kiss and tell,
never have to run, never have to run and hide

ProTabs promo.jpg

Onbeperkt en gratis toegang tot alle 25.000
Tabs & Chords en direct meespelen met

Artiest Liedje

...

Gitaarakkoorden Racoon - Eric's bar

Dankzij de bladmuziek op deze pagina wordt het een stuk makkelijker om met de gitaar mee te spelen met Eric's bar van Racoon De ProTabs van Gitaartabs worden door onze professionele gitaardocenten samengesteld. De tabs en chords zijn door leden zelf geplaatst. Deze undefined van Racoon met Eric's bar is voor je geschreven door rick

Tabs & Chords van Racoon - Eric's bar

Bij de ProTabs delen we niet alleen de tablatuur maar ook de speelwijze van Eric's bar Met een beetje gitaar ervaring moet je dit gitaarliedje zeker kunnen spelen, maar als het niet lukt zijn we er altijd om je te helpen. Door een gratis account aan te maken krijg je niet alleen toegang tot deze tab ,akkoorden & tabs van Eric's bar maar kun je ook onbeperkt meespelen met een van de meer dan 25.000 andere tabs & chords in onze database.

Plaats opmerking

Beoordeel deze song

Rate UsDon’t love itNot greatGoodGreatLove itRate Us

Bedankt voor je beoordeling!