Hilarious

Gitaarliedjes, tabs & akkoorden (chords) Hilarious - Racoon

Songtype: Tab

arrow&v

Markeer als favoriet

Favoriet

Gemarkeerd als favoriet

Capo:

0

Racoon

Racoon

Song
Album
Categorie

Hilarious

Downloads
652
Niveau
2
Geplaatst door
rick
ProTabs-promo.jpg

E A

Eb |------------------------------------------------------------------------------
Bb |------------9--/7---5-----5-7-5-------------9---7-----5---5-7-5---------------
Gb |------------------------7-------7-------------------7---7-------7-------------
Db |------------------------------------------------------------------------------
Ab |--------------0-0-----------------------------0-0-----------------------------
Eb |--0-------------------------------0-------------------------------------------
* * * * * * * *

[chorus riff]

D5 D-5 D Dsus2 D5 D-5 D D-5

Eb |--5---5-5---4-2-----0---0---0-----5---5-5---4-2-----4---4---4-----------------
Bb |--3---3-3---3-3-----3---3---3-----3---3-3---3-3-----3---3---3-----------------
Gb |--2---2-2---2-2-----2---2---2-----2---2-2---2-2-----2---2---2-----------------
Db |--0---0-0---0-0-----0---0---0-----0---0-0---0-0-----0---0---0-----------------
Ab |------------------------------------------------------------------------------
Eb |------------------------------------------------------------------------------

ProTabs promo.jpg

Onbeperkt en gratis toegang tot alle 25.000
Tabs & Chords en direct meespelen met

Artiest Liedje

...

Gitaarakkoorden Racoon - Hilarious

Dankzij de bladmuziek op deze pagina wordt het een stuk makkelijker om met de gitaar mee te spelen met Hilarious van Racoon De ProTabs van Gitaartabs worden door onze professionele gitaardocenten samengesteld. De tabs en chords zijn door leden zelf geplaatst. Deze undefined van Racoon met Hilarious is voor je geschreven door rick

Tabs & Chords van Racoon - Hilarious

Bij de ProTabs delen we niet alleen de tablatuur maar ook de speelwijze van Hilarious Met een beetje gitaar ervaring moet je dit gitaarliedje zeker kunnen spelen, maar als het niet lukt zijn we er altijd om je te helpen. Door een gratis account aan te maken krijg je niet alleen toegang tot deze tab ,akkoorden & tabs van Hilarious maar kun je ook onbeperkt meespelen met een van de meer dan 25.000 andere tabs & chords in onze database.

Plaats opmerking

Beoordeel deze song

Rate UsDon’t love itNot greatGoodGreatLove itRate Us

Bedankt voor je beoordeling!