Laugh about it

Gitaarliedjes, tabs & akkoorden (chords) Laugh about it - Racoon

Songtype: Tab

arrow&v

Markeer als favoriet

Favoriet

Gemarkeerd als favoriet

Capo:

0

Racoon

Racoon

Song
Album
Categorie

Laugh about it

Downloads
1566
Niveau
2
Geplaatst door
rick
ProTabs-promo.jpg

Intro:
G Am Em7 C D Em7
e|-------------------------0-------|-----7----8p7--10----7----8p7--7--|
B|--0---1--0h1----1h3-3-------5--7-|--8---8------------8--8--------7--|
G|----0--------0--------0----------|-------7---------------7----------|
D|---------------------------------|----------------------------------|
A|-----------0--------2-------3--5-|--7----------------7--------------|
E|-3-------------------------------|----------------------------------|

G Am Em7 C D Em7
e|-------------------------0-------|-----7----8p7--10----7----8p7--7--|
B|--0---1--0h1----1h3-3-------5--7-|--8---8------------8--8--------7--|
G|----0--------0--------0----------|-------7---------------7----------|
D|---------------------------------|----------------------------------|
A|-----------0--------2-------3--5-|--7----------------7--------------|
E|-3-------------------------------|----------------------------------|


Couplet 1:
G Am Em7 C D Em7
e|-------------------------0-------|-----7----8p7--10----7----8p7--7--|
B|--0---1--0h1----1h3-3-------5--7-|--8---8------------8--8--------7--|
G|----0--------0--------0----------|-------7---------------7----------|
D|---------------------------------|----------------------------------|
A|-----------0--------2-------3--5-|--7----------------7--------------|
E|-3-------------------------------|----------------------------------|
Can you give me solid groud.......

G Am Em7 C D Em7
e|-------------------------0-------|-----7----8p7--10----7----8p7--7--|
B|--0---1--0h1----1h3-3-------5--7-|--8---8------------8--8--------7--|
G|----0--------0--------0----------|-------7---------------7----------|
D|---------------------------------|----------------------------------|
A|-----------0--------2-------3--5-|--7----------------7--------------|
E|-3-------------------------------|----------------------------------|
Can you give me free advice.......

G Am Em7 C D Em7
e|-------------------------0-------|-----7----8p7--10----7----8p7--7--|
B|--0---1--0h1----1h3-3-------5--7-|--8---8------------8--8--------7--|
G|----0--------0--------0----------|-------7---------------7----------|
D|---------------------------------|----------------------------------|
A|-----------0--------2-------3--5-|--7----------------7--------------|
E|-3-------------------------------|----------------------------------|
And I can blast friendship to hell..

G Am Em7 C D Em7
e|-------------------------0-------|-----7----8p7--10----7----8p7--7--|
B|--0---1--0h1----1h3-3-------5--7-|--8---8------------8--8--------7--|
G|----0--------0--------0----------|-------7---------------7----------|
D|---------------------------------|----------------------------------|
A|-----------0--------2-------3--5-|--7----------------7--------------|
E|-3-------------------------------|----------------------------------|
They change the rules when it’s my turn..

Refrein 1:
G Am Em7 D
e|-----------7---8------7---|--5-------5--7----5---------|
B|-------0----------8-----8-|-----8---------8----8-------|
G|-----0--------------------|-------7--------------------|
D|--------------------------|----------------------------|
A|--------------------------|----------------------------|
E|--3-----------------------|----------------------------|
I can laugh about it

G Am Em7 D
e|-----------7---8------7---|--5-------5--7----5---------|
B|-------0----------8-----8-|-----8---------8----8-------|
G|-----0--------------------|-------7--------------------|
D|--------------------------|----------------------------|
A|--------------------------|----------------------------|
E|--3-----------------------|----------------------------|
Or I can cry about it..

G Am Em7 D
e|-----------7---8------7---|--5-------5--7----5---------|
B|-------0----------8-----8-|-----8---------8----8-------|
G|-----0--------------------|-------7--------------------|
D|--------------------------|----------------------------|
A|--------------------------|----------------------------|
E|--3-----------------------|----------------------------|
I should ignore the things you say

G D
e|-----------5---7------5---|
B|-------0----------8-----8-|
G|-----0--------------------|
D|--------------------------|
A|--------------------------|
E|--3-----------------------|
They can hurt...

G Am Em7 C D Em7
e|-------------------------0-------|-----7----8p7--10----7----8p7--7--|
B|--0---1--0h1----1h3-3-------5--7-|--8---8------------8--8--------7--|
G|----0--------0--------0----------|-------7---------------7----------|
D|---------------------------------|----------------------------------|
A|-----------0--------2-------3--5-|--7----------------7--------------|
E|-3-------------------------------|----------------------------------|

Couplet 2:
G Am Em7 C D Em7
e|-------------------------0-------|-----7----8p7--10----7----8p7--7--|
B|--0---1--0h1----1h3-3-------5--7-|--8---8------------8--8--------7--|
G|----0--------0--------0----------|-------7---------------7----------|
D|---------------------------------|----------------------------------|
A|-----------0--------2-------3--5-|--7----------------7--------------|
E|-3-------------------------------|----------------------------------|

A fist full of the things you love...

G Am Em7 C D Em7
e|-------------------------0-------|-----7----8p7--10----7----8p7--7--|
B|--0---1--0h1----1h3-3-------5--7-|--8---8------------8--8--------7--|
G|----0--------0--------0----------|-------7---------------7----------|
D|---------------------------------|----------------------------------|
A|-----------0--------2-------3--5-|--7----------------7--------------|
E|-3-------------------------------|----------------------------------|
When the future’s far away....

G Am Em7 C D Em7
e|-------------------------0-------|-----7----8p7--10----7----8p7--7--|
B|--0---1--0h1----1h3-3-------5--7-|--8---8------------8--8--------7--|
G|----0--------0--------0----------|-------7---------------7----------|
D|---------------------------------|----------------------------------|
A|-----------0--------2-------3--5-|--7----------------7--------------|
E|-3-------------------------------|----------------------------------|
And everytime I’m having fun...

G Am Em7 C Bb A G#
e|-------------------------0-------|----------------------------------|
B|--0---1--0h1----1h3-3-------5--3-|--2----2--2---2--1---1--1---1-----|
G|----0--------0--------0----------|----0-------0------0------0-------|
D|---------------------------------|----------------------------------|
A|-----------0--------2-------3--1-|--0-------0-----------------------|
E|-3-------------------------------|-----------------4------4---------|
And all these warning lights are lit..

Refrein 2:
G Am Em7 D
e|-----------7---8------7---|--5-------5--7----5---------|
B|-------0----------8-----8-|-----8---------8----8-------|
G|-----0--------------------|-------7--------------------|
D|--------------------------|----------------------------|
A|--------------------------|----------------------------|
E|--3-----------------------|----------------------------|
I can laugh about it..

G Am Em7 D
e|-----------7---8------7---|--5-------5--7----5---------|
B|-------0----------8-----8-|-----8---------8----8-------|
G|-----0--------------------|-------7--------------------|
D|--------------------------|----------------------------|
A|--------------------------|----------------------------|
E|--3-----------------------|----------------------------|
Or I can cry about it..

G Am Em7 D
e|-----------7---8------7---|--5-------5--7----5---------|
B|-------0----------8-----8-|-----8---------8----8-------|
G|-----0--------------------|-------7--------------------|
D|--------------------------|----------------------------|
A|--------------------------|----------------------------|
E|--3-----------------------|----------------------------|
I should ignore the things you say..

G D
e|-----------5---7------5---|
B|-------0----------8-----8-|
G|-----0--------------------|
D|--------------------------|
A|--------------------------|
E|--3-----------------------|
Cause they can hurt...

G Am Em7 C D Em7
e|-------------------------0-------|-----7----8p7--10----7----8p7--7--|
B|--0---1--0h1----1h3-3-------5--7-|--8---8------------8--8--------7--|
G|----0--------0--------0----------|-------7---------------7----------|
D|---------------------------------|----------------------------------|
A|-----------0--------2-------3--5-|--7----------------7--------------|
E|-3-------------------------------|----------------------------------|
They can hurt...

Interlude:

G Am Em7 C D Em7
e|-------------------------0-------|-----7----8p7--10----7----8p7--7--|
B|--0---1--0h1----1h3-3-------5--7-|--8---8------------8--8--------7--|
G|----0--------0--------0----------|-------7---------------7----------|
D|---------------------------------|----------------------------------|
A|-----------0--------2-------3--5-|--7----------------7--------------|
E|-3-------------------------------|----------------------------------|

G Am Em7 C D C
e|-------------------------0-------|-----4----5p4-4------4----5p4--4--|
B|--0---1--0h1----1h3-3-------5--7-|--5---5-------4---5---5--------4--|
G|----0--------0--------0----------|-------4---------------4----------|
D|---------------------------------|----------------------------------|
A|-----------0--------2-------3--5-|--4---------------4---------------|
E|-3-------------------------------|----------------------------------|

Refrein 3:
G Am Em7 D
e|-----------7---8------7---|--5-------5--7----5---------|
B|-------0----------8-----8-|-----8---------8----8-------|
G|-----0--------------------|-------7--------------------|
D|--------------------------|----------------------------|
A|--------------------------|----------------------------|
E|--3-----------------------|----------------------------|
I can laugh about it..

G Am Em7 D
e|-----------7---8------7---|--5-------5--7----5---------|
B|-------0----------8-----8-|-----8---------8----8-------|
G|-----0--------------------|-------7--------------------|
D|--------------------------|----------------------------|
A|--------------------------|----------------------------|
E|--3-----------------------|----------------------------|
Or I can cry about it..

G Am Em7 D
e|-----------7---8------7---|--5-------5--7----5---------|
B|-------0----------8-----8-|-----8---------8----8-------|
G|-----0--------------------|-------7--------------------|
D|--------------------------|----------------------------|
A|--------------------------|----------------------------|
E|--3-----------------------|----------------------------|
I should ignore the things you say..

G Am Em7 D
e|-----------7---8------7---|--5-------5--7----5---------|
B|-------0----------8-----8-|-----8---------8----8-------|
G|-----0--------------------|-------7--------------------|
D|--------------------------|----------------------------|
A|--------------------------|----------------------------|
E|--3-----------------------|----------------------------|
They can hurt...

Outro: (langzamer)
G Am Em7 D
e|-----------7---8------7---|--5-------5--7----5---------|
B|-------0----------8-----8-|-----8---------8----8-------|
G|-----0--------------------|-------7--------------------|
D|--------------------------|----------------------------|
A|--------------------------|----------------------------|
E|--3-----------------------|----------------------------|
They can hurt..
G Am Em7 D
e|-----------7---8------7---|--5-------5--7----5---------|
B|-------0----------8-----8-|-----8---------8----8-------|
G|-----0--------------------|-------7--------------------|
D|--------------------------|----------------------------|
A|--------------------------|----------------------------|
E|--3-----------------------|----------------------------|
No they won’t kill

G~~~~~~~~~~~
e|-------3~~~~~~-------------|
B|------3~~~~~~~-------------|
G|-----4~~~~~~~~-------------|
D|----5~~~~~~~~~-------------|
A|---5~~~~~~~~~~-------------|
E|--3~~~~~~~~~~~-------------|
Me...

Tekst:
G Am Em7
Can you give me solid ground,
C D Em7
cause all my footsteps turn me down,
Em7
one by one.
G Am Em7
Can you give me free advice,
C D Em7
I don't know if I can,
Em7
but I'll try to listen.
G Am Em7
And I can blast friendship to hell,
C D Em7
or I can try to make things better.
Em7
Believe me that I'll make things better.
G Am Em7
They change the rules when it's my turn,
C D Em7
so they can laugh and watch me burn.

G Am Em7 D
I can laugh about it,
G Am Em7 D
or I can cry about it.
G Am Em7
I should ignore the words you say.
D
Cause they can hurt,
but won't kill me
G Am
They can hurt,
Em7
but won't kill me.
G Am Em7 C D Em7
They can hurt but won't kill me.

G Am Em7
A fist full of the things you love.
C D Em7
Life's a quiz so cough it up.
Em7
Go on and cough it up now.
G Am Em7
When the future's far away,
C D Em7
it's always better then today yeah,
G Am Em7
And everytime I'm having fun,
C D Em7
there's something I'm doing wrong.
G Am Em7
And all these warning lights are lit,
C Bb G#
but always after you need it.

Yeah well anyway

I can laugh about it,
I'd better try to laugh.
or I can cry about it.
You'll never see me cry
I should ignore the words you say,
they can hurt,
but won't kill me
cause they can hurt,
but won't kill me.
They can hurt but won't kill me.

So I can laugh about it,
yeah I'd better try to laugh.
or I can cry about it.
no you know you'll never see me cry.
I should ignore the words you say.
They can hurt,
but won't kill me.
Cause they can hurt,
but won't kill me.
No they won't kill me.

ProTabs promo.jpg

Onbeperkt en gratis toegang tot alle 25.000
Tabs & Chords en direct meespelen met

Artiest Liedje

...

Gitaarakkoorden Racoon - Laugh about it

Dankzij de bladmuziek op deze pagina wordt het een stuk makkelijker om met de gitaar mee te spelen met Laugh about it van Racoon De ProTabs van Gitaartabs worden door onze professionele gitaardocenten samengesteld. De tabs en chords zijn door leden zelf geplaatst. Deze undefined van Racoon met Laugh about it is voor je geschreven door rick

Tabs & Chords van Racoon - Laugh about it

Bij de ProTabs delen we niet alleen de tablatuur maar ook de speelwijze van Laugh about it Met een beetje gitaar ervaring moet je dit gitaarliedje zeker kunnen spelen, maar als het niet lukt zijn we er altijd om je te helpen. Door een gratis account aan te maken krijg je niet alleen toegang tot deze tab ,akkoorden & tabs van Laugh about it maar kun je ook onbeperkt meespelen met een van de meer dan 25.000 andere tabs & chords in onze database.

Plaats opmerking

Beoordeel deze song

Rate UsDon’t love itNot greatGoodGreatLove itRate Us

Bedankt voor je beoordeling!