World on a plate

Gitaarliedjes, tabs & akkoorden (chords) World on a plate - Racoon

Songtype: Tab

arrow&v

Markeer als favoriet

Favoriet

Gemarkeerd als favoriet

Capo:

0

Racoon

Racoon

Song
Album
Categorie

World on a plate

Downloads
1963
Niveau
2
Geplaatst door
rick
ProTabs-promo.jpg

Tune guitar down 1/2 step


[intro and verse riff]

Aadd9 A Dmaj7 Dmaj7sus2

Eb |-----7-7-----7-7-----5-5-----5-5-----5-5-----5-5-----5-5-----5-5-------------
Bb |-----5-5-----5-5-----5-5-----5-5-----7-7-----7-7-----5-5-----5-5-------------
Gb |-----6-6-----6-6-----6-6-----6-6-----6-6-----6-6-----6-6-----6-6-------------
Db |-----7-7-----7-7-----7-7-----7-7-----7-7-----7-7-----7-7-----7-7-------------
Ab |-0---0-0-----0-0-----0-0-----0-0-----5-5-----5-5-----5-5-----5-5-------------
Eb |-----------------------------------------------------------------------------
* * * * * * * *

[chorus riff]

PM A5 (let ring)

Eb |-------------0---------------------------------------------------------------
Bb |-------------10----------10----------10------9-----------7h9p7---------------
Gb |-9---9---9---9---------------9---------------------------------7-------------
Db |-7---7---7---7---------------------------------------------------------------
Ab |-0---0---0---0---------------------------------------------------------------
Eb |-----------------------------------------------------------------------------
* * * * * * * *

PM A5 (let ring)

Eb |-------------0---------------------------------------------------------------
Bb |-------------10----------10------------------------------7h9p7---------------
Gb |-9---9---9---9---------------9---------------------------------7-------------
Db |-7---7---7---7---------------------------------------------------------------
Ab |-0---0---0---0---------------------------------------------------------------
Eb |-----------------------------------------------------------------------------
* * * * * * * *

PM A5 (let ring)

Eb |-------------0---------------------------------------------------------------
Bb |-------------10----------10------------------------------7h9p7---------------
Gb |-9---9---9---9---------------9---------------------------------7-------------
Db |-7---7---7---7---------------------------------------------------------------
Ab |-0---0---0---0---------------------------------------------------------------
Eb |-----------------------------------------------------------------------------
* * * * * * * *

PM A5 (let ring)

Eb |-------------0-------9--------------------------------------------------------
Bb |-------------10----------10----------10------9-----------7h9p7---------------
Gb |-9---9---9---9---------------9---------------------------------7-------------
Db |-7---7---7---7---------------------------------------------------------------
Ab |-0---0---0---0---------------------------------------------------------------
Eb |-----------------------------------------------------------------------------
* * * * * * * *

ProTabs promo.jpg

Onbeperkt en gratis toegang tot alle 25.000
Tabs & Chords en direct meespelen met

Artiest Liedje

...

Gitaarakkoorden Racoon - World on a plate

Dankzij de bladmuziek op deze pagina wordt het een stuk makkelijker om met de gitaar mee te spelen met World on a plate van Racoon De ProTabs van Gitaartabs worden door onze professionele gitaardocenten samengesteld. De tabs en chords zijn door leden zelf geplaatst. Deze undefined van Racoon met World on a plate is voor je geschreven door rick

Tabs & Chords van Racoon - World on a plate

Bij de ProTabs delen we niet alleen de tablatuur maar ook de speelwijze van World on a plate Met een beetje gitaar ervaring moet je dit gitaarliedje zeker kunnen spelen, maar als het niet lukt zijn we er altijd om je te helpen. Door een gratis account aan te maken krijg je niet alleen toegang tot deze tab ,akkoorden & tabs van World on a plate maar kun je ook onbeperkt meespelen met een van de meer dan 25.000 andere tabs & chords in onze database.

Plaats opmerking

Beoordeel deze song

Rate UsDon’t love itNot greatGoodGreatLove itRate Us

Bedankt voor je beoordeling!