Golden touch

Gitaarliedjes, tabs & akkoorden (chords) Golden touch - razorlight

Songtype: Tab

arrow&v

Markeer als favoriet

Favoriet

Gemarkeerd als favoriet

Capo:

0

razorlight

razorlight

Song
Album
Categorie

Golden touch

Downloads
183
Niveau
2

Geplaatst door
gitaartabs
ProTabs-promo.jpg

|---------------------------------------------------------------------------|
|-5--------------------------------------------5----------------------------|
|-6--------------------------------------------6----------------------------|
|-6----------7-------------6-------------------6-----4--------------6-------|
|-4----------7-------------6-------------------4-----4--------------6-------|
|------------5-------------4-------------------------2--------------4-------|
I know a girl with a golden touch she's got enough,

----------------------------------------------------------------------------|
---------------5---------------------------------5--------------------------|
---------------6----6-9-------9------------------6--------------------------|
---------------6----x-9-------9------------------6------4-------------------|
---------------4----6-7-------6------------------4------4-------------------|
--------------------------------------------------------2-------------------|
she's got too much. but I know, you wouldn't mind. You could have it

-----------------------------------------------------------------------------|
-------------------------------------------------------------5---------------|
-------------------------------------------------------------6---------------|
-6------------------4-------------------6--------------------6---------------|
-6------------------4-------------------6---------7-------8--4---------------|
-4------------------2-------------------4---------5-------6------------------|
all if you wanted, you could have it all if it matters so much. But

-------------------------------------------------------------------------|
----------------4--------------------------------------------5-----------|
----------------4--------2-----------------------------------6-----------|
----------------4--------2------------------4--6-------------6-----------|
----------------2--------0------------------4--6-------------4-----------|
--------------------------------------------2--4-------------------------|
then all, they know, is how to put you down. When you're there, your

---------------------------------------------------------------------------|
-4------------------------------------------------------5-------4----------|
-4------------------2-----------------------------------6-------4----------|
-4------------------2--------------------4--6-----------6-------4----------|
-2------------------0--------------------4--6-----------4-------2----------|
-----------------------------------------2--4------------------------------|
friend, well, then when you're not around The say, "oh, she's changed,

-----------------------------------------------------------------------------|
----------------------------------------5-------------------4----------------|
-----2----------------------------------6-------------------4----------------|
-----2---------------------4--6---------6-------------------4----------------|
-----0---------------------4--6---------4-------------------2----------------|
---------------------------2--4----------------------------------------------|
and we know what that means" Well it means, they're just jealous because

----------------------------------------------------------------------------|
-------------------------------------------------------------------------5--|
---------2---------------------------------------------------------------6--|
---------2-------------------------------4----------------------6--------6--|
---------0-------------------------------4----------------------6--------4--|
-----------------------------------------2----------------------4-----------|
they've never done the things that they wished that they could do so well.


---------------------------------------------|---------------------------|
-5-5-x-5-x-5-5-x-5-x-5-x-5-5-x-5-x-5-5-x-----|-5-5-x-5-x-5-5-5-5-5-5-5-5-|
-6-6-x-6-x-6-6-x-6-x-6-x-6-6-x-6-x-6-6-x---4-|-6-6-x-6-x-6-6-6-6-6-6-6-6-|
-6-6-x-6-x-6-6-x-6-x-6-x-6-6-x-6-x-6-6-x-4-4-|-6-6-x-6-x-6-6-6-6-6-6-6-6-|
-4-4-x-4-x-4-4-x-4-x-4-x-4-4-x-4-x-4-4-x-4-2-|-4-4-x-4-x-4-4-4-4-4-4-4-4-|
-----------------------------------------2-2-|---------------------------|
Solo rhythm x4 x4

-----------------------------------------------------------------------------|
-5------4-----------------5----------------------------------5---------------|
-6------4-----2-----------6----------------------------------6---------------|
-6------4-----2-----4-----6----7--------6--------------------6-------4-------|
-4------2-----0-----4-----4----7--------6--------------------4-------4-------|
--------------------2----------5--------4----------------------------2-------|
Saw my girl with the golden touch Gimme

----------------------------------------------------------------------------|
---------------------5------------------------------------5----------7------|
---------------------6----6-9---------9-------------------6----------7------|
---6-----------------6----x-9---------9-------------------6----------7------|
---6-----------------4----6-7---------6-------------------4----------5------|
---4------------------------------------------------------------------------|
a taste but not too much I never listen to the words of a fool, well,

---------------------------------------------------------------------------|
-------5------7------------------------------5-------7---------------------|
-6-----6------7--------------6---------------6-------7-----------6---------|
-7-----6------7--------------7---------------6-------7-----------7---------|
-7-----4------5--------------7---------------4-------5-----------7---------|
-5---------------------------5-----------------------------------5---------|
well, well You know you promised not to tell And don't give away

---------------------------------------------------------|
-------5-----7--------------------------------5----------|
-------6-----7--------------6-----------------6----------|
-------6-----7--------------7-----------------6----------|
-------4-----5--------------7-----------------4----------|
----------------------------5----------------------------|
too much You're gonna need that golden touch

__________________

Lead - Chorus 1
|------9----11---------------9---------------|-12-----12*-|
|---10---10----12----12---10---10---10----12-|-12-----12*-|
|-9---------------11----9---------9----11----|-11---------|
|--------------------------------------------|------------|
|--------------------------------------------|------------|
|--------------------------------------------|------------|
x4

Lead - Verse 2
|-------------------------------------------------------4-------2-----0---0-2-|
|-----5--4-------5--4h5-5-5------5--7--5------x-5-5-5-5-----5-4---4-2---2-----|
|---6------4---4-6--4h6-6-6----6----------6---x-6-6-6-----6-------------------|
|-6----------6---6--6---6-6--6----------------x-6-6-6-------------------------|
|-----------------------------------------------------------------------------|
|-----------------------------------------------------------------------------|

-0---0-----0-----4-----4-------7----12---|
---2-------5-----4---5---5---7---7--12---|
---------6-----4---6-------8-------------|
-------6-----4---------------------------|
-----------------------------------------|
-----------------------------------------|


Lead - Chorus 2
|---------------11-11-x-x-------------------------|
|-x-9--9--x-x-x-12-12-x-x-10-10-10-10-10-10-12-12-|
|-x-9--9--x-x-x-11-11-x-x-9--9--9--9--9--9--11-11-|
|-x-11-11-x-x-x-----------------------11-11-13-13-|
|-x-11-11-x-x-x-----------------------------------|
|-------------------------------------------------|


Lead - Solo
|----16------------------------16-------------------------------16-16-16--19-|
|-17----17--------14----14--17----17--------14----14--18-18-18--x--x--x---x--|
|----------18--16----16--------------18--16----16-----16-16-16--16-16-16--16-|
|----------------------------------------------------------------------------|
|----------------------------------------------------------------------------|
|----------------------------------------------------------------------------|

-19-19-19-19-19-19-19-19-19-19-19-19-19-19-19-19-19-19-19---------------|
-x--x--x--x--x--x--x--x--x--x--x--x--x--x--x--x--x--x--x----------------|
-16-16-16-16-16-16-16-16-16-16-16-16-16-16-16-16-16-16-16--16---14---13-|
------------------------------------------------------------------------|
------------------------------------------------------------------------|
------------------------------------------------------------------------|

ProTabs promo.jpg

Onbeperkt en gratis toegang tot alle 25.000
Tabs & Chords en direct meespelen met

Artiest Liedje

...

Gitaarakkoorden razorlight - Golden touch

Dankzij de bladmuziek op deze pagina wordt het een stuk makkelijker om met de gitaar mee te spelen met Golden touch van razorlight De ProTabs van Gitaartabs worden door onze professionele gitaardocenten samengesteld. De tabs en chords zijn door leden zelf geplaatst. Deze undefined van razorlight met Golden touch is voor je geschreven door gitaartabs

Tabs & Chords van razorlight - Golden touch

Bij de ProTabs delen we niet alleen de tablatuur maar ook de speelwijze van Golden touch Met een beetje gitaar ervaring moet je dit gitaarliedje zeker kunnen spelen, maar als het niet lukt zijn we er altijd om je te helpen. Door een gratis account aan te maken krijg je niet alleen toegang tot deze tab ,akkoorden & tabs van Golden touch maar kun je ook onbeperkt meespelen met een van de meer dan 25.000 andere tabs & chords in onze database.

Plaats opmerking

Verstuur

Beoordeel deze song

Rate UsDon’t love itNot greatGoodGreatLove itRate Us

Bedankt voor je beoordeling!