By the way

Gitaarliedjes, tabs & akkoorden (chords) By the way - red hot chili peppers

Songtype: Tab

arrow&v

Markeer als favoriet

Favoriet

Gemarkeerd als favoriet

Capo:

0

red hot chili peppers

red hot chili peppers

Song
Album
Categorie

By the way

by the way

Downloads
14
Niveau
2
Geplaatst door
kaham
ProTabs-promo.jpg

Nummer: By The Way
Artiest: Red Hot Chili Peppers, The
Album: By The Way
Tab: BasG [Kaham]
Tuning: Standard EADGBe

By the Way heeft maar een paar akkoorden, maar gedurende het nummer worden een aantal variaties gespeeld.
Daarom heb ik deze tab ingedeeld in rhythm figures, om zo de overzichtelijkheid te behouden en de tab niet te groot te maken.
De betekenis van alle symbolen staat onderaan de tab. (Sorry deze is wel in het Engels, gezien het bestand origineel gemaakt is in Guitar Pro 5.)

Volgorde:
Intro (Rhythm Figure 1)
Chorus A (Rhythm Figure 2)
Interlude (Rhythm Figure 3)
Verse (Rhythm Figure 4)
Chorus B (Rhythm Figure 5)
Interlude (Rhythm Figure 3)
Verse (Rhythm Figure 4)
Bridge A (Rhythm Figure 1)
Chorus A (Rhythm Figure 2)
Interlude B (Rhythm Figure 6)
Bridge B (Rhythm Figure 7)
Chorus B (Rhythm Figure 5)
Chorus B (Rhythm Figure 5)
Outro (Rhythm Figure 8)


----------------------------------------------------------------------------

RHYTHM FIG. 1: INTRO/BRIDGE A

F5 C/E
E E E E E E E E E E E E E E E E
E||----------------------------------|----------------------------------|
B||----------------------------------|----------------------------------|
G||----------------------------------|----------------------------------|
D||--10--10--10--10--10--10--10--10--|--10--10--10--10--10--10--10--10--|
A||---8---8---8---8---8---8---8---8--|---7---7---7---7---7---7---7---7--|
E||----------------------------------|----------------------------------|


A5
E E E E E E E E E E E E E E E E
|--------------------------|--------------------------|
|--------------------------|--------------------------|
|--------------------------|--------------------------|
|--------------------------|--------------------------|
|--7--7--7--7--7--7--7--7--|--7--7--7--7--7--7--7--7--|
|--5--5--5--5--5--5--5--5--|--5--5--5--5--5--5--5--5--|

----------------------------------------------------------------------------

RHYTHM FIG. 2: CHORUS A

F5 C
E E E E E E E E E E E E E E E E
|----------------------------------|----------------------------------|
|----------------------------------|----------------------------------|
|----------------------------------|---9---9---9---9---9---9---9---9--|
|--10--10--10--10--10--10--10--10--|--10--10--10--10--10--10--10--10--|
|---8---8---8---8---8---8---8---8--|----------------------------------|
|----------------------------------|----------------------------------|


A5/E
E E E E E E E E E E E E E E E E
|--------------------------|--------------------------|
|--------------------------|--------------------------|
|--------------------------|--------------9--9--7--7--|
|--7--7--7--7--7--7--7--7--|--7--7--7--7--7--7--7--7--|
|--7--7--7--7--7--7--7--7--|--7--7--7--7--------------|
|--------------------------|--------------------------|


F5 C5
E E E E E E E E E E E E E E E E
|----------------------------------|---------------------------|
|----------------------------------|---------------------------|
|----------------------------------|---------------------------|
|--10--10--10--10--10--10--10--10--|--5--5--5--5--5--5--5--5---|
|---8---8---8---8---8---8---8---8--|--3--3--3--3--3--3--3--3S--|
|----------------------------------|---------------------------|


A5 G5
E E E E E E E E E E E E E E E E
|--------------------------|--------------------------|
|--------------------------|--------------------------|
|--------------------2--2--|--2--2--2--2--2--2--------|
|--2--2--2--2--2--2--2--2--|--2--2--2--2--2--2--5--5--|
|--0--0--0--0--0--0--0--0--|--0--0--0--0--0--0--5--5--|
|--------------------------|--------------------------|


F5 C
E E E E E E E E E E E E E E E E
|----------------------------------|--------------------------|
|----------------------------------|--5--5--5--5--5--5--5--5--|
|----------------------------------|--5--5--5--5--5--5--5--5--|
|--10--10--10--10--10--10--10--10--|--------------------------|
|---8---8---8---8---8---8---8---8--|--------------------------|
|----------------------------------|--------------------------|


A5
E E E E E E E E E E E E E E E E
|----------------------------------|----------------------------------|
|--10--10--10--10--10--10--10--10--|--10--10--10--10--10--10--10--10--|
|---9---9---9---9---9---9---9---9--|---9---9---9---9---9---9---9---9--|
|----------------------------------|----------------------------------|
|----------------------------------|----------------------------------|
|----------------------------------|----------------------------------|

----------------------------------------------------------------------------

RHYTHM FIG. 3: INTERLUDE

N.C. (Dm)
S S S S S S S S S S S S S S S S
|---x--x--x--x--x--x--x--x--x--x--x--x--x--x--x--x---|
|---x--x--x--x--x--x--x--x--x--x--x--x--x--x--x--x---|
|o--x--x--x--x--x--x--x--x--x--x--x--x--x--x--x--x--o|
|o--------------------------------------------------o| 4x
|----------------------------------------------------|
|----------------------------------------------------|

----------------------------------------------------------------------------

RHYTM FIG. 4: VERSE

S S S S S S S S S S S S S S S S
|---x--x--x--x--x--x--x--x--x--x--x--x--x--x--x--x---|
|---x--x--x--x--x--x--x--x--x--x--x--x--x--x--x--x---|
|o--x--x--x--x--x--x--x--x--x--x--x--x--x--x--x--x--o|
|o--------------------------------------------------o| 3x
|----------------------------------------------------|
|----------------------------------------------------|

S S S S S S S S S S S S S S S S
|---x--x--x--x--x--x--x-------------------------|
|---x--x--x--x--x--x--x-13---13---13---13--x--x-|
|---x--x--x--x--x--x--x-------------------------|
|-----------------------------------------------|
|-----------------------------------------------|
|-----------------------------------------------|

Dm
E E S S S S S S S S S S S S
|---10--10---x--x--x--x----x--x--x--x--x--x--x---|
|---10--10---x--x--x--x----x--x--x--x--x--x--x---|
|o--10--10---x--x--x--x----x--x--x--x--x--x--x--o|
|o--12--12--------------------------------------o| 3x
|------------------------------------------------|
|------------------------------------------------|

E E S S S S S S S S S S S S
|--10--10---x--x--x-------------------------|
|--10--10---x--x--x-13---13---13---13--x--x-|
|--10--10---x--x--x-------------------------|
|--12--12-----------------------------------|
|-------------------------------------------|
|-------------------------------------------|

Dm
E E S S S S S S S S S S S S
|---10--10---x--x--x--x----x--x--x--x--x--x--x---|
|---10--10---x--x--x--x----x--x--x--x--x--x--x---|
|o--10--10---x--x--x--x----x--x--x--x--x--x--x--o|
|o--12--12--------------------------------------o| 2x
|------------------------------------------------|
|------------------------------------------------|

E E S S S S S S S S S S S S
|--10--10---x--x--x--x----x--x--x--x--x--x-10-|
|--10--10---x--x--x--x----x--x--x--x--x--x-10-|
|--10--10---x--x--x--x----x--x--x--x--x--x-10-|
|--12--12----------------------------------12-|
|---------------------------------------------|
|---------------------------------------------|

S S S S S S S S S S S S S E S
|--10-10-10-10-10-10-10-10-10-10-10-10-10-10---x-|
|--10-10-10-10-10-10-10-10-10-10-10-10-10-10---x-|
|--10-10-10-10-10-10-10-10-10-10-10-10-10-10---x-|
|--12-12-12-12-12-12-12-12-12-12-12-12-12-12---x-|
|------------------------------------------------|
|------------------------------------------------|

----------------------------------------------------------------------------

RHYTHM FIG. 5: CHORUS B
F C
Q E. S E E S S E E E E. S S S E E E
|--1----1---1-1--1--x-x-0--|-----0--0---0-0-0-0--0-----|
|--1----1---1-1--1--x-x-5--|--L--5--5---5-5-5-5--5--x--|
|--2----2---2-2--2--x-x-0--|--L--0--0---0-0-0-0--0--x--|
|--3----3---3-3--3--x-x-5--|--L--5--5---5-5-5-5--5--x--|
|--3----3---3-3--3--x-x-3--|--L--3--3---3-3-3-3--3--x--|
|--1----1---1-1--1--x-x----|---------------------------|

Dm7
Q E. S E E S S E E E E. S S S E E E
|--------------------------|---------------------------|
|--6----6---6-6--6--L-6-6--|--L--6--6---6-6-6-6--6--x--|
|--5----5---5-5--5--L-5-5--|--L--5--5---5-5-5-5--5--x--|
|--7----7---7-7--7--L-7-7--|--L--7--7---7-7-7-7--7--x--|
|--5----5---5-5--5--L-5-5--|--L--5--5---5-5-5-5--5--x--|
|--------------------------|---------------------------|

F C
Q E. S E E S S E E E E. S S S E E E
|--1----1---1-1--1--x-x-0--|-----0--0---0-0-0-0--0-----|
|--1----1---1-1--1--x-x-5--|--L--5--5---5-5-5-5--5--x--|
|--2----2---2-2--2--x-x-0--|--L--0--0---0-0-0-0--0--x--|
|--3----3---3-3--3--x-x-5--|--L--5--5---5-5-5-5--5--x--|
|--3----3---3-3--3--x-x-3--|--L--3--3---3-3-3-3--3--x--|
|--1----1---1-1--1--x-x----|---------------------------|

Am Bb
Q E. S E E E E E E E. S E E E E
|--0----0---0-0--0--0--0--|--------------------------|
|--1----1---1-1--1--1--1--|-----3--3---3-3--3--3--3--|
|--2----2---2-2--2--2--2--|-----3--3---3-3--3--3--3--|
|--2----2---2-2--2--2--2--|-----3--3---3-3--3--3--3--|
|--0----0---0-0--0--0--0--|-----1--1---1-1--1--1--1--|
|-------------------------|--------------------------|

----------------------------------------------------------------------------

RYTHM FIG. 6: INTERLUDE B
Dm
> >
E E H.
|---10--10-----------------|
|---10--10-----------------|
|o--10--10----------------o|
|o--12--12----------------o| 3x
|--------------------------|
|--------------------------|

> >
E E Q. S S S S E
|--10--10------------------------|
|--10--10----------13-13---13----|
|--10--10------------------------|
|--12--12------------------------|
|--------------------------------|
|--------------------------------|

----------------------------------------------------------------------------

RHYTHM FIG. 7: BRIDGE B

Dm
E E S S S S S S S S S S S S
|---10--10---x--x--x--x----x--x--x--x--x--x--x---|
|---10--10---x--x--x--x----x--x--x--x--x--x--x---|
|o--10--10---x--x--x--x----x--x--x--x--x--x--x--o|
|o--12--12--------------------------------------o| 3x
|------------------------------------------------|
|------------------------------------------------|

E E S S S S E S S S S E
|--10--10---x--x----x------------------|
|--10--10---x--x----x----13-13---13----|
|--10--10---x--x----x------------------|
|--12--12------------------------------|
|--------------------------------------|
|--------------------------------------|

Dm
E E S S S S S S S S S S S S
|---10--10---x--x--x--x----x--x--x--x--x--x--x---|
|---10--10---x--x--x--x----x--x--x--x--x--x--x---|
|o--10--10---x--x--x--x----x--x--x--x--x--x--x--o|
|o--12--12--------------------------------------o| 3x
|------------------------------------------------|
|------------------------------------------------|

F
S S S S S S S S S S S S S S S S
|--10-10-10-10-10-10-10-10-10-10-10-10-10-10S-1-1-|
|--10-10-10-10-10-10-10-10-10-10-10-10-10-10S-1-1-|
|--10-10-10-10-10-10-10-10-10-10-10-10-10-10S-2-2-|
|--12-12-12-12-12-12-12-12-12-12-12-12-12-12S-3-3-|
|-------------------------------------------------|
|-------------------------------------------------|

----------------------------------------------------------------------------

RHYTHM FIG. 8: OUTRO

F C
Q E. S E E S S E E E E. S S S E E E
|--1----1---1-1--1--x-x-0--|-----0--0---0-0-0-0--0-----|
|--1----1---1-1--1--x-x-5--|--L--5--5---5-5-5-5--5--x--|
|--2----2---2-2--2--x-x-0--|--L--0--0---0-0-0-0--0--x--|
|--3----3---3-3--3--x-x-5--|--L--5--5---5-5-5-5--5--x--|
|--3----3---3-3--3--x-x-3--|--L--3--3---3-3-3-3--3--x--|
|--1----1---1-1--1--x-x----|---------------------------|


Dm7
Q E. S E E S S E E E E. S S S E E E
|--------------------------|---------------------------|
|--6----6---6-6--6--L-6-6--|--L--6--6---6-6-6-6--6--x--|
|--5----5---5-5--5--L-5-5--|--L--5--5---5-5-5-5--5--x--|
|--7----7---7-7--7--L-7-7--|--L--7--7---7-7-7-7--7--x--|
|--5----5---5-5--5--L-5-5--|--L--5--5---5-5-5-5--5--x--|
|--------------------------|---------------------------|


F C
Q E. S E E S S E E E E. S S S E E E
|--1----1---1-1--1--x-x-0--|-----0--0---0-0-0-0--0-----|
|--1----1---1-1--1--x-x-5--|--L--5--5---5-5-5-5--5--x--|
|--2----2---2-2--2--x-x-0--|--L--0--0---0-0-0-0--0--x--|
|--3----3---3-3--3--x-x-5--|--L--5--5---5-5-5-5--5--x--|
|--3----3---3-3--3--x-x-3--|--L--3--3---3-3-3-3--3--x--|
|--1----1---1-1--1--x-x----|---------------------------|


Am Bb Dm7
Q E. S E E E E E E E. S E E Q W
|--0----0---0-0--0--0--0--|--------------------------|-------------------||
|--1----1---1-1--1--1--1--|-----3--3---3-3--3--3S----|--6----------------||
|--2----2---2-2--2--2--2--|-----3--3---3-3--3--3S----|--5----------------||
|--2----2---2-2--2--2--2--|-----3--3---3-3--3--3S----|--7----------------||
|--0----0---0-0--0--0--0--|-----1--1---1-1--1--1S----|--5----------------||
|-------------------------|--------------------------|-------------------||

----------------------------------------------------------------------------

Duration Legend
---------------
W - whole
H - half
Q - quarter
E - 8th
S - 16th
. - note dotted

Tablature Legend
----------------
L - tied note
x - dead note
> - accentuded note
/ - slide into from below or out of upwards
\ - slide into from above or out of downwards

ProTabs promo.jpg

Onbeperkt en gratis toegang tot alle 25.000
Tabs & Chords en direct meespelen met

Artiest Liedje

...

Gitaarakkoorden red hot chili peppers - By the way

Dankzij de bladmuziek op deze pagina wordt het een stuk makkelijker om met de gitaar mee te spelen met By the way van red hot chili peppers De ProTabs van Gitaartabs worden door onze professionele gitaardocenten samengesteld. De tabs en chords zijn door leden zelf geplaatst. Deze undefined van red hot chili peppers met By the way is voor je geschreven door kaham

Tabs & Chords van red hot chili peppers - By the way

Bij de ProTabs delen we niet alleen de tablatuur maar ook de speelwijze van By the way Met een beetje gitaar ervaring moet je dit gitaarliedje zeker kunnen spelen, maar als het niet lukt zijn we er altijd om je te helpen. Door een gratis account aan te maken krijg je niet alleen toegang tot deze tab ,akkoorden & tabs van By the way maar kun je ook onbeperkt meespelen met een van de meer dan 25.000 andere tabs & chords in onze database.

Plaats opmerking

Beoordeel deze song

Rate UsDon’t love itNot greatGoodGreatLove itRate Us

Bedankt voor je beoordeling!