Californication tab

Gitaarliedjes, tabs & akkoorden (chords) Californication tab - red hot chili peppers

Songtype: Tab

arrow&v

Markeer als favoriet

Favoriet

Gemarkeerd als favoriet

Capo:

0

red hot chili peppers

red hot chili peppers

Song
Album
Categorie

Californication tab

californication

Downloads
2139
Niveau
2
Geplaatst door
lars bezemer
ProTabs-promo.jpg

Hallo leuk dat je me tab bezoekt,

Ik ga je nu uitleggen hoe je californication moet spelen.
Het is een vrij makkelijke en mooie song maar toch heeft het wat aandachtspuntjes nodig.
Vooral de solo is vrij lastig.
Ik ben ook niet 100 % zeker van de tab tekens omdat ik nou eenmaal niet een profesionele tabmaker ben.
Ik probeer het gewoon zo goed mogelijk aan je uit te leggen.
Oke we gaan naar het eerste deel.
Het eerste deel is vrij simpel.
Het bestaan eigenlijk uit een A mineur.
Het 2de akoord weet ik eigenlijk niet maar het komt op hetzelfde neer.
Dus speel beide stukken met de greep die je bij een A mineur zo doen!

Intro:


E |----------------------------------------|
B |-------0-1----------------------------|
G |----2------------------0-2-----------|
D |--2------------------3----------------|
A |--------------------3------------------|
E |----------------------------------------|

Simpel he?
Dit versprijd zich eigenlijk over een paar delen van het nummer.
Nadat je de intro een paar keer heb herhaald komt het volgende stuk:


E |---------------------------3----1-------|
B |------1---------1------3------3-------|
G |--------------2-----------------2-------|
D |----2------3----------------------------|
A |--3------3---------2-------------------|
E |-------------------3---------------------

Als je goed kijkt zie je dat dit stukje uit 4 akoorden bestaat.
Je pakt ze dus ook met de volgende grepen:

| C | F | G | Dm |

Aan het eind zie je dus die cijfertjes onder elkaar.
Strijk dit dus aan als een Dm akoord.

Na dit stuk herhaalt zich de intro weer en daarna dit stuk dus weer.
Daarna gaan we dus over naar de akoorden die je speelt.
Ik ben er niet zo zeker van of het helemaal goed is maar het klinkt wel goed.
Ik speel hem namelijk met een Am en een E is het volgens mij alleen dan moet je het 1 vakje opschruiven maar ik ken de naam van dit akoord niet dus daarom zal ik hier onder maar even duiderlijk aangeven wat het nou is.
Je kan het volgens mij ook Am, F spelen je moet zelf maar even kijken wat het beste klinkt voor mij dus die Am en die opgeschroven E.


Am E? of inplaats van die E een: F

E |0 0 0|
B |1 0 1|
G |2 2 2|
D |2 3 3|
A |0 3 3|
E |0 0 0|

Dit stuk hoort dus bij de lyrics:

Pay your surgeon very well
To break the spell of aging
Celebrity skin is this your chin
Or is that war your waging

First born unicorn
Hardcore soft porn

En wissel je dus af met de akoorden:

| Am | E? | of inplaats van die E een F

Luister naar het nummer en je weet wat ik bedoel.

Daarna heb je het stuk bij de volgende lyrics:

Dream of Californication
Dream of Californication
Dream of Californication
Dream of Californication

Dat is simpelweg de akoorden:

| C | G | Dm | Am |

Die je 2 keer herhaalt en vervolgens bij de 2de keer bij de Dm afhaakt dus niet nog een keer Am spelen.

Daarna heb je dus weer de intro het stukje daarna alweer de akoorden en daarna komt dus een prachtige gitaar solo.

Solo:


E |------9------------9------------------------------------------------------------------------------|
B |--10----------10------------------------------------------------9------------------------------|
G |---------b11-------b11-11--11-11-11-9-------------9----11-9----------------------|
D |-----------------------------------------------------11-9-11---------------11----------------|
A |----------------------------------------------------------------------------------------------------|
E |----------------------------------------------------------------------------------------------------|

E |-----9-12-14-----9-12-b14-14-17-16-14----14-------------------------------------|
B |-10-------------10----------------------------------17----17-14-17-14------------------|
G |-----------------------------------------------------------------------------------------------------|
D |------------------------------------------------------------------------------------------------------|
A |------------------------------------------------------------------------------------------------------|
E |------------------------------------------------------------------------------------------------------|

E |---------------------------------b14-12----12-------------12---------------------------------|
B |--b14-b14-b14-17-14------------14----14-12--------15-14------------------------|
G |-------------------------------------------------------------14-------------14--------------------|
D |------------------------------------------------------------------------------------------------------|
A |------------------------------------------------------------------------------------------------------|
E |------------------------------------------------------------------------------------------------------

Zo dat was Californication.
Ik weet het niet zeker met de b'tjes die ik heb geplaats in de solo.
De bedoeling is dus dat je de snaar optilt en weer laat zakken.
Maar gewoon proberen dan hoor je het zelf wel.
Kom je er nou echt niet uit neem dan aub gewoon contact met me op ik help je met alle plezier!

ProTabs promo.jpg

Onbeperkt en gratis toegang tot alle 25.000
Tabs & Chords en direct meespelen met

Artiest Liedje

...

Gitaarakkoorden red hot chili peppers - Californication tab

Dankzij de bladmuziek op deze pagina wordt het een stuk makkelijker om met de gitaar mee te spelen met Californication tab van red hot chili peppers De ProTabs van Gitaartabs worden door onze professionele gitaardocenten samengesteld. De tabs en chords zijn door leden zelf geplaatst. Deze undefined van red hot chili peppers met Californication tab is voor je geschreven door lars bezemer

Tabs & Chords van red hot chili peppers - Californication tab

Bij de ProTabs delen we niet alleen de tablatuur maar ook de speelwijze van Californication tab Met een beetje gitaar ervaring moet je dit gitaarliedje zeker kunnen spelen, maar als het niet lukt zijn we er altijd om je te helpen. Door een gratis account aan te maken krijg je niet alleen toegang tot deze tab ,akkoorden & tabs van Californication tab maar kun je ook onbeperkt meespelen met een van de meer dan 25.000 andere tabs & chords in onze database.

Plaats opmerking

Beoordeel deze song

Rate UsDon’t love itNot greatGoodGreatLove itRate Us

Bedankt voor je beoordeling!