Dani california (eind solo)

Gitaarliedjes, tabs & akkoorden (chords) Dani california (eind solo) - red hot chili peppers

Songtype: Tab

arrow&v

Markeer als favoriet

Favoriet

Gemarkeerd als favoriet

Capo:

0

red hot chili peppers

red hot chili peppers

Song
Album
Categorie

Dani california (eind solo)

Downloads
2956
Niveau
2
stadiam arcadium

Geplaatst door
b-master
ProTabs-promo.jpg

heey ik begin met het leukste stuk van het liedje de solo :D

------------------------------------------------------------------------------
--------10----------------------------------------------------------------------
--------10----------------------------------------------------------------------
----10------12--------------------------------------------------------------------
-12---------------12\10-8-10-8-10-8-10--------------------------------------------------------
---------------------------------------------10---3--1--3--1--10----------------------

--------------------------------------------------10---------------------------------------
------------------------------------------10--13--------------10-------------------------------
----------10--------------------------------------------------10-----------------------------
-------10-----12----10-----10-----12-----------------------10-----12------------------------------------
---12------------------12-----12------------------------12------------12\10-8-10-8-10-8-10------------------------
--------------------------------------------------------------------------------------------10----------

---------------------------------------------------------10-------------------------------
----------------------10-------------------------10--13------10-13-10------------------------------
----------------------10------------------------------------------------------------------
-------------------10-----12----10----10-----12---------------------------------------------------
----------------12-----------------12----12----------------------------------------------------
--3-1-3-1--10----------------------------------------------------------------------------------

----10---------10--------10--------10---------10------------------------------------------------------
--------13-10-----13-10-----13-10-----13--10------13--10----------10----------------------------------------------
------------------------------------------------------------------10--------------------------------------
---------------------------------------------------------------10----12-----10----10----10----------------
-----------------------------------------------------------12------------12----12----12-----12\10-8--------------
----------------------------------------------------------------------------------------------------10------








Dat was de eindsolo ik doe even snel ook het stuk bij de coupletten

je slaat steeds twee keer de bas aan en dan de 3 snaren die daarna komen


---------5----------3---------1----------0-------
--------5----------3---------3----------1--------
-------5----------4---------2----------2--------
--7--7-------5--5------0--0-----------2------------
---------------------------------0--0---------
--------------------------------------------

dus eigenlijk

|Am |G |Dm |Am |

dat herhaal je tot het refrein bij het refrein komen powerchords.

je wacht tot calif
en dan val je in
|F,,C,|D,,G,| 4x

dan komt er naar het eerste refrein weer een solo

------------------------------------17--------
-13---12--15--17------13---12--15-----------------
--------------------------------------------
-14---12--15--19------14---12--15---19--------------
--------------------------------------------
--------------------------------------------

dan herhaal je weer het refrein en het couplet waarvan je de akkoordewn al weer

en na het refrein komt dan

alleen de bassen aan slaan

B B B B GG f#f# en dan weer tot het couplet dan doe je het couplet en weer het refrein en dan komt de bovenste solo.

ProTabs promo.jpg

Onbeperkt en gratis toegang tot alle 25.000
Tabs & Chords en direct meespelen met

Artiest Liedje

...

Gitaarakkoorden red hot chili peppers - Dani california (eind solo)

Dankzij de bladmuziek op deze pagina wordt het een stuk makkelijker om met de gitaar mee te spelen met Dani california (eind solo) van red hot chili peppers De ProTabs van Gitaartabs worden door onze professionele gitaardocenten samengesteld. De tabs en chords zijn door leden zelf geplaatst. Deze undefined van red hot chili peppers met Dani california (eind solo) is voor je geschreven door b-master

Tabs & Chords van red hot chili peppers - Dani california (eind solo)

Bij de ProTabs delen we niet alleen de tablatuur maar ook de speelwijze van Dani california (eind solo) Met een beetje gitaar ervaring moet je dit gitaarliedje zeker kunnen spelen, maar als het niet lukt zijn we er altijd om je te helpen. Door een gratis account aan te maken krijg je niet alleen toegang tot deze tab ,akkoorden & tabs van Dani california (eind solo) maar kun je ook onbeperkt meespelen met een van de meer dan 25.000 andere tabs & chords in onze database.

Plaats opmerking

Verstuur

Beoordeel deze song

Rate UsDon’t love itNot greatGoodGreatLove itRate Us

Bedankt voor je beoordeling!