Snow

Gitaarliedjes, tabs & akkoorden (chords) Snow - red hot chili peppers

Songtype: Tab

arrow&v

Markeer als favoriet

Favoriet

Gemarkeerd als favoriet

Capo:

0

red hot chili peppers

red hot chili peppers

Song
Album
Categorie

Snow

stadium arcadium

Downloads
635
Niveau
2
Geplaatst door
christoph pegel
ProTabs-promo.jpg


The tuning is half-step-down


--------------------------------------|
------1---1h3p1---1-----1---1h3p1---1-|
----2---2-------2-----2---2-------2---|
--2-----------------3-----------------|
--------------------------------------|
--------------------------------------|

--------------------------------------|
------------------------3---3h5p3---3-|
------0---0h2p0---0---4---4-------4---|
----2---2-------2---5-----------------|
--3-----------------------------------|
--------------------------------------|

--------------------------------------|
------1---1h3p1---1-----1---1h3p1---1-|
----2---2-------2-----2---2-------2---|
--2-----------------3-----------------|
--------------------------------------|
--------------------------------------|

--------------------------------------||
--------------------------------------||
------0---0h2p0---0-----0---0h2p0---0-||
----2---2-------2-----0---0-------0---||
--3-----------------2-----------------||
--------------------------------------||


-- TEKST --

Come to decide that the things that i tried
Were in my life just to get high on

When i sit alone come get a little more known
But i need more than myself this time

Step from the road to the sea to the sky
And i do believe what we rely on

When i lay it on
Come get to play it on
all my life to sacrifice

Hey oh listen what i say oh
I got your
Hey oh listen what i say oh

When will I know that I really can't go
To the well one more time to decide on

When it's killing me
when will I really see
All that i need to look inside

Come to believe that i better not leave
Before I get my chance to ride

When it's killing me
What do I really need
All that I need to look inside

The more I see the less I know
The more I like to let it go..hey oh

Deep beneath the cover of another perfect wonder
Where it's so white as snow

Privately divided by a world so undecided
And there's nowhere to go

In beneath the cover of another perfect wonder
Where it's so white as snow

Running through a field where all my tracks will
Be concealed and there is nowhere to go

when to descend to amend for a friend
All the channels that have broken down

Now you bring it up
i'm gonna ring it up
Just to hear you sing it out

Step from the road to the sea to the sky
and I do believe what we rely on

When I lay it on
comeget to play it on
all my life to sacrifice

ProTabs promo.jpg

Onbeperkt en gratis toegang tot alle 25.000
Tabs & Chords en direct meespelen met

Artiest Liedje

...

Gitaarakkoorden red hot chili peppers - Snow

Dankzij de bladmuziek op deze pagina wordt het een stuk makkelijker om met de gitaar mee te spelen met Snow van red hot chili peppers De ProTabs van Gitaartabs worden door onze professionele gitaardocenten samengesteld. De tabs en chords zijn door leden zelf geplaatst. Deze undefined van red hot chili peppers met Snow is voor je geschreven door christoph pegel

Tabs & Chords van red hot chili peppers - Snow

Bij de ProTabs delen we niet alleen de tablatuur maar ook de speelwijze van Snow Met een beetje gitaar ervaring moet je dit gitaarliedje zeker kunnen spelen, maar als het niet lukt zijn we er altijd om je te helpen. Door een gratis account aan te maken krijg je niet alleen toegang tot deze tab ,akkoorden & tabs van Snow maar kun je ook onbeperkt meespelen met een van de meer dan 25.000 andere tabs & chords in onze database.

Plaats opmerking

Beoordeel deze song

Rate UsDon’t love itNot greatGoodGreatLove itRate Us

Bedankt voor je beoordeling!