(snow) hey oh

Gitaarliedjes, tabs & akkoorden (chords) (snow) hey oh - red hot chili peppers

Songtype: Tab

arrow&v

Markeer als favoriet

Favoriet

Gemarkeerd als favoriet

Capo:

0

red hot chili peppers

red hot chili peppers

Song
Album
Categorie

(snow) hey oh

Downloads
1851
Niveau
2

Geplaatst door
gitaartabs
ProTabs-promo.jpg

e---------------------------------------------------

b---------------------------------------------------

g-------4---4--h6----4------------------------------

d----6----6--------6--------------------------------

a-6-------------------------------------------------

e---------------------------------------------------



e---------------------------------------------------

b---------------------------------------------------

g-------4---4--h6----4------------------------------

d----6----6--------6--------------------------------

a-7-------------------------------------------------

e---------------------------------------------------



e----------------------------------------------------

b----------------------------------------------------

g----------------------------------------------------

d-------4----4--h6-----4----------7(slide down)9-----

a----6----6---------6--------------------------------

e--7-------------------------------------------------



e---------------------------------------------------

b---------------------------------------------------

g--------6-----6--h8-----6--------------------------

d-----8-----8---------8-----------------------------

a--9------------------------------------------------

e---------------------------------------------------

ProTabs promo.jpg

Onbeperkt en gratis toegang tot alle 25.000
Tabs & Chords en direct meespelen met

Artiest Liedje

...

Gitaarakkoorden red hot chili peppers - (snow) hey oh

Dankzij de bladmuziek op deze pagina wordt het een stuk makkelijker om met de gitaar mee te spelen met (snow) hey oh van red hot chili peppers De ProTabs van Gitaartabs worden door onze professionele gitaardocenten samengesteld. De tabs en chords zijn door leden zelf geplaatst. Deze undefined van red hot chili peppers met (snow) hey oh is voor je geschreven door gitaartabs

Tabs & Chords van red hot chili peppers - (snow) hey oh

Bij de ProTabs delen we niet alleen de tablatuur maar ook de speelwijze van (snow) hey oh Met een beetje gitaar ervaring moet je dit gitaarliedje zeker kunnen spelen, maar als het niet lukt zijn we er altijd om je te helpen. Door een gratis account aan te maken krijg je niet alleen toegang tot deze tab ,akkoorden & tabs van (snow) hey oh maar kun je ook onbeperkt meespelen met een van de meer dan 25.000 andere tabs & chords in onze database.

Plaats opmerking

Verstuur

Beoordeel deze song

Rate UsDon’t love itNot greatGoodGreatLove itRate Us

Bedankt voor je beoordeling!