Tell me baby

Gitaarliedjes, tabs & akkoorden (chords) Tell me baby - red hot chili peppers

Songtype: Tab

arrow&v

Markeer als favoriet

Favoriet

Gemarkeerd als favoriet

Capo:

0

red hot chili peppers

red hot chili peppers

Song
Album
Categorie

Tell me baby

stadium arcadium

Downloads
29
Niveau
2
Geplaatst door
[b]lack[a]ngel
ProTabs-promo.jpg

Intro:
E|-------------------------|
B|---1----1--------0---1---|
G|-2-----0-----0---------2-|
D|-3-----2-----------------|
A|-------------------------|
E|-------------------------|

E|-------------------1-|
B|---1----1--------0-3-|
G|-2-----0-----0-----2-|
D|-3-----2-----------0-|
A|-------------------0-|
E|-------------------0-|

E|-------------------------|
B|---1----1--------0---1---|
G|-2-----0-----0---------2-|
D|-3-----2-----------------|
A|-------------------------|
E|-------------------------|

E|-----------0-|
B|---1----1--0-|
G|-2-----0---0-|
D|-3-----2---2-|
A|-----------2-|
E|-----------0-|

Dan:
E|----------------------------------------|
B|----------------------------------------|
G|-x-12--14-----x-12-x-14-x-------x-x-x-x-|
D|-x---------14-x----x----x-14-14-x-x-x-x-|x3
A|----------------------------------------|
E|----------------------------------------|

E|----------------------------------|
B|--------------13-12---------------|
G|-x-12--14--12-------x-14-x--12-14-|
D|-x------------------x----x--------|
A|----------------------------------|
E|----------------------------------|

Couplet:x2
E|----------------------------------------|
B|----------------------------------------|
G|-x-12--14-----x-12-x-14-x-------x-x-x-x-|
D|-x---------14-x----x----x-14-14-x-x-x-x-|x3
A|----------------------------------------|
E|----------------------------------------|

E|----------------------------------|
B|--------------13-12---------------|
G|-x-12--14--12-------x-14-x--12-14-|
D|-x------------------x----x--------|
A|----------------------------------|
E|----------------------------------|

Dan:
E|-12-x-x-12-x-x-12-x-x-12-12---12-12--x-x--12-x-12-x-x-|
B|-12-x-x-12-x-x-12-x-x-12-12---12-12--x-x--12-x-12-x-x-|
G|----x-x----x-x----x-x----------------x-x-----x----x-x-|
D|------------------------------------------------------|x3
A|------------------------------------------------------|
E|------------------------------------------------------|

E|-15-15-15-15-15-15-15-15-15-15-15-15-|
B|-15-15-15-15-15-15-15-15-15-15-15-15-|
G|-16-16-16-16-16-16-16-16-16-16-16-16-|
D|-------------------------------------|
A|-------------------------------------|
E|-------------------------------------|

E|----------------------------------------|
B|----------------------------------------|
G|-x-12--14-----x-12-x-14-x-------x-x-x-x-|
D|-x---------14-x----x----x-14-14-x-x-x-x-|x3
A|----------------------------------------|
E|----------------------------------------|

E|------------------|
B|------------------|
G|-x-12--14--12h14~-|
D|-x----------------|
A|------------------|
E|------------------|

Refrein:
E|--------------------------------------------13--------|
B|----13----13------12-13--------13----13---12-----15---|
G|-14----12------12-------14---14----12---12-----14--14-|
D|------------------------------------------------------|
A|------------------------------------------------------|
E|------------------------------------------------------|

E|---------------------------------------------13----13-|
B|------13----13-----12-13--------13----13-----12----12-|
G|---14----12-----12-------14--14----12-----12-12-12-12-|
D|------------------------------------------------------|
A|------------------------------------------------------|
E|------------------------------------------------------|

E|----------------------------------------13------------------------------------------------|
B|---13--13----12-13--------13----13----12------15---------13---13-----12-13-------13----13-|
G|-14--12---12-------14--14----12-----12-----14----14---14----12----12-------14--14---12----|
D|------------------------------------------------------------------------------------------|
A|------------------------------------------------------------------------------------------|
E|------------------------------------------------------------------------------------------|

E|-13--13--13--13--13-|
B|-12--12--12--12--12-|
G|--------------------|
D|--------------------|
A|--------------------|
E|--------------------|

Dan:
E|----------------------17^~--|
B|--------------10~~~---------|
G|--------9~~-----------------|
D|-(h7)-----------------------|
A|----------------------------|
E|-----5~~--------------------|

Couplet 2:x2
E|----------------------------------------|
B|----------------------------------------|
G|-x-12--14-----x-12-x-14-x-------x-x-x-x-|
D|-x---------14-x----x----x-14-14-x-x-x-x-|x3
A|----------------------------------------|
E|----------------------------------------|

E|----------------------------------|
B|--------------13-12---------------|
G|-x-12--14--12-------x-14-x--12-14-|
D|-x------------------x----x--------|
A|----------------------------------|
E|----------------------------------|

Dan:
E|-12-x-x-12-x-x-12-x-x-12-12---12-12--x-x--12-x-12-x-x-|
B|-12-x-x-12-x-x-12-x-x-12-12---12-12--x-x--12-x-12-x-x-|
G|----x-x----x-x----x-x----------------x-x-----x----x-x-|
D|------------------------------------------------------|x3
A|------------------------------------------------------|
E|------------------------------------------------------|

E|-15-15-15-15-15-15-15-15-15-15-15-15-|
B|-15-15-15-15-15-15-15-15-15-15-15-15-|
G|-16-16-16-16-16-16-16-16-16-16-16-16-|
D|-------------------------------------|
A|-------------------------------------|
E|-------------------------------------|

E|----------------------------------------|
B|----------------------------------------|
G|-x-12--14-----x-12-x-14-x-------x-x-x-x-|
D|-x---------14-x----x----x-14-14-x-x-x-x-|x3
A|----------------------------------------|
E|----------------------------------------|

E|------------------|
B|------------------|
G|-x-12--14--12h14~-|
D|-x----------------|
A|------------------|
E|------------------|

Refrein:
E|--------------------------------------------13--------|
B|----13----13------12-13--------13----13---12-----15---|
G|-14----12------12-------14---14----12---12-----14--14-|
D|------------------------------------------------------|
A|------------------------------------------------------|
E|------------------------------------------------------|

E|---------------------------------------------13----13-|
B|------13----13-----12-13--------13----13-----12----12-|
G|---14----12-----12-------14--14----12-----12-12-12-12-|
D|------------------------------------------------------|
A|------------------------------------------------------|
E|------------------------------------------------------|

E|----------------------------------------13------------------------------------------------|
B|---13--13----12-13--------13----13----12------15---------13---13-----12-13-------13----13-|
G|-14--12---12-------14--14----12-----12-----14----14---14----12----12-------14--14---12----|
D|------------------------------------------------------------------------------------------|
A|------------------------------------------------------------------------------------------|
E|------------------------------------------------------------------------------------------|

E|-13--13--13--13--13-|
B|-12--12--12--12--12-|
G|--------------------|
D|--------------------|
A|--------------------|
E|--------------------|

Solo:
E|------------------------------------------------------------------------------------------------|
B|------------------------------------------------------------------------------------------------|
G|------------------------------------------------------------------------------------------------|
D|-14~--10h12p10---------10-12-----10-12------10-12-----10-12--------10------10-------12-------10-|
A|----------------12--12--------12---------12--------12--------10-12----10-12---10-12-----12-10---|
E|------------------------------------------------------------------------------------------------|

E|---------------------------------15-16-17-|
B|--------------------------13-15-----------|
G|--------------12-x-12-14------------------|
D|----12----10------------------------------|
A|-12----12---------------------------------|
E|------------------------------------------|

Refrein:
E|--------------------------------------------13--------|
B|----13----13------12-13--------13----13---12-----15---|
G|-14----12------12-------14---14----12---12-----14--14-|
D|------------------------------------------------------|
A|------------------------------------------------------|
E|------------------------------------------------------|

E|---------------------------------------------13----13-|
B|------13----13-----12-13--------13----13-----12----12-|
G|---14----12-----12-------14--14----12-----12-12-12-12-|
D|------------------------------------------------------|
A|------------------------------------------------------|
E|------------------------------------------------------|

E|----------------------------------------13------------------------------------------------|
B|---13--13----12-13--------13----13----12------15---------13---13-----12-13-------13----13-|
G|-14--12---12-------14--14----12-----12-----14----14---14----12----12-------14--14---12----|
D|------------------------------------------------------------------------------------------|
A|------------------------------------------------------------------------------------------|
E|------------------------------------------------------------------------------------------|

E|-13--13--13--13--13-|
B|-12--12--12--12--12-|
G|--------------------|
D|--------------------|
A|--------------------|
E|--------------------|

ProTabs promo.jpg

Onbeperkt en gratis toegang tot alle 25.000
Tabs & Chords en direct meespelen met

Artiest Liedje

...

Gitaarakkoorden red hot chili peppers - Tell me baby

Dankzij de bladmuziek op deze pagina wordt het een stuk makkelijker om met de gitaar mee te spelen met Tell me baby van red hot chili peppers De ProTabs van Gitaartabs worden door onze professionele gitaardocenten samengesteld. De tabs en chords zijn door leden zelf geplaatst. Deze undefined van red hot chili peppers met Tell me baby is voor je geschreven door [b]lack[a]ngel

Tabs & Chords van red hot chili peppers - Tell me baby

Bij de ProTabs delen we niet alleen de tablatuur maar ook de speelwijze van Tell me baby Met een beetje gitaar ervaring moet je dit gitaarliedje zeker kunnen spelen, maar als het niet lukt zijn we er altijd om je te helpen. Door een gratis account aan te maken krijg je niet alleen toegang tot deze tab ,akkoorden & tabs van Tell me baby maar kun je ook onbeperkt meespelen met een van de meer dan 25.000 andere tabs & chords in onze database.

Plaats opmerking

Beoordeel deze song

Rate UsDon’t love itNot greatGoodGreatLove itRate Us

Bedankt voor je beoordeling!